Oxymoron - Dirty Punk Chords & Tabs

 

Dirty Punk Chords & Tabs

Oxymoron Chords & Tabs

Version: 1 Type: Tab 0 ratings
1 star 2 stars 3 stars 4 stars 5 stars
comments

Dirty Punk Tab

Oxymoron's web page: http://www.oxys.de/ (German Street Punk Band)

-----------------------------------------------------------------------------
DIRTY PUNK - Oxymoron 
-----------------------------------------------------------------------------

By: andyhmv@hotmail.com 
These are the main riffs of the song but I havn't figured out the solo, 
if anyone knows it email me please. Figure out the rythem and how many 
strums. 

/ = slide 

Intro: 
e|-------------------------------------------------------------------------| 
B|-------------------------------------------------------------------------| 
G|---5-7--------9----------------------------------------------------------| 
D|-7-5-7--(x3)--9----------------------------------------------------------| 
A|-7-3-5--------7----------------------------------------------------------| 
E|-5-----------------------------------------------------------------------| 
[ Tab from: http://www.guitartabs.cc/tabs/o/oxymoron/dirty_punk_tab.html ]
Verse: 
e|-------------------------------------------------------------------------| 
B|-------------------------------------------------------------------------| 
G|---6/77-6/77--------4-6--------------------------------------------------| 
D|-7-6/77-6/77--(x3)--4-6-7------------------------------------------------| 
A|-7-4/55-4/55--------2-4-7------------------------------------------------|
E|-5----------------------5------------------------------------------------| 

Chorus: 
e|-------------------------------------------------------------------------| 
B|-------------------------------------------------------------------------| 
G|-4-6-7---------4-6-7-----------------------------------------------------| 
D|-4-6-7--5-7----4-6-7--7/9/7----------------------------------------------| 
A|-2-4-5--5-7----2-4-5--7/9/7----------------------------------------------|
E|--------3-5-----------5/7/5----------------------------------------------| 

Bass Fill (the bit that the bass plays between the end of the chorus and the 
next verse): 

e|-------------------------------------------------------------------------| 
B|-------------------------------------------------------------------------| 
G|-------------------------------------------------------------------------| 
D|-------------------------------------------------------------------------| 
A|-------8-10--------------(x2)--------------------------------------------|
E|-10-10-------10-10-8-5---------------------------------------------------| 

-----------------------------------------------------------------------------
Comments