Oxymoron - Bored And Violent Chords & Tabs

 

Bored And Violent Chords & Tabs

Oxymoron Chords & Tabs

Version: 1 Type: Tab 0 ratings
1 star 2 stars 3 stars 4 stars 5 stars
comments

Bored And Violent Tab

Oxymoron's web page: http://www.oxys.de/ (German Street Punk Band)

--------------------------------------------------------------------------- 
BORED AND VIOLENT - Oxymoron 
---------------------------------------------------------------------------

Played at 120 bpm 

Tabbed by r b at incendium@mediaone.net 

Intro: 2x 
E||-----------------------|-----------------------------------|| 
B||-----------------------|-----------------------------------|| 
G||*------------8--8------|--10--10--10--10--10--10--10--10--*|| 
D||*--6--6------8--8------|--10--10--10--10--10--10--10--10--*|| 
A||---6--6------6--6------|--8---8---8---8---8---8---8---8----|| 
E||---4--4----------------|-----------------------------------|| 

----------------------|---------------------|-------------------| 
----------------------|---------------------|-------------------| 
------------8--8------|--10--------6--------|--5----------------| 
--6--6------8--8------|--10--------6--------|--5----------------| 
--6--6------6--6------|--8---------4--------|--3----------------| 
--4--4----------------|---------------------|-------------------| 

Verse: 2x 
||-----------------------------------|---------------------------|| 
||-----------------------------------|---------------------------|| 
||*--10--10--10--10--10--10--10--10--|--------------6--8--8--8--*|| 
||*--10--10--10--10--10--10--10--10--|--6--6--6--6--6--8--8--8--*|| 
||---8---8---8---8---8---8---8---8---|--6--6--6--6--4--6--6--6---|| 
||-----------------------------------|--4--4--4--4---------------|| 
[ Tab from: http://www.guitartabs.cc/tabs/o/oxymoron/bored_and_violent_tab.html ]
----------------------------------|------------------------| 
----------------------------------|------------------------| 
--10--10--10--10--10--10--10--10--|--------------8--8------| 
--10--10--10--10--10--10--10--10--|--6--6--6--6--8--8------| 
--8---8---8---8---8---8---8---8---|--6--6--6--6--6--6------| 
----------------------------------|--4--4--4--4------------| 

Chorus: 
||---------------------|--------------------|--------------------| 
||---------------------|--------------------|--------------------| 
||*--------------------|--8--------6--------|--------------------| 
||*--6--------8--------|--8--------6--------|--6--------8--------| 
||---6--------8--------|--6--------4--------|--6--------8--------| 
||---4--------6--------|--------------------|--4--------6--------| 

---------------------------------|| 
---------------------------------|| 
--------------------------------*|| 
------10------10------10--------*|| 
------10------10------10---------|| 
--8-8-----8-8-----8-8-----8--6---|| 

Bass Solo: 
||--------------------|--------------------|| 
||--------------------|--------------------|| 
||*-------------------|-------------------*|| 
||*--3----------------|-------------------*|| 
||---3----------------|--------------------|| 
||---1----------------|--------------------|| 

Outro: 
||----------------------|--------------------|| 
||----------------------|--------------------|| 
||------------8--8------|--10----------------|| 
||--6--6------8--8------|--10----------------|| 
||--6--6------6--6------|--8-----------------|| 
||--4--4----------------|--------------------|| 

Arrangement 
Intro 1x 
Verse 1x 
Chorus 1x 
Verse 1x 
Chorus 1x 
Bass Solo 2x 
16 Bars of Guitar Solo 
Chorus 1x 
Verse 1x 
Outro 1x 

----------------------------------------------------------------------------
Comments