Oxymoron - Bleed Chords & Tabs

 

Bleed Chords & Tabs

Oxymoron Chords & Tabs

Version: 2 Type: Tab 0 ratings
1 star 2 stars 3 stars 4 stars 5 stars
comments

Bleed Tab

   
                               BLEED
                             ---------
                              OXYMORON
                        tabbed by: matt goolsby

" " -palm mute
/ -slide
* -hold and emphasize
...^ -slide up
...V -slide down


e|--------------------------------------------|
b|--------------------------------------------|
g|-------------------10-9/7-------------------| intro
d|----------9-999999--------10-101010-10/9----|
a|-7-777777-7-777777-----------------------10-|
E|-5-555555-----------------------------------|


e|-------------------------------------|
b|-------------------------------------|
g|-------------------------------------| verse a
d|----------9-999999-3-2/0-----------5-|
a|-7-777777-7-777777-------3-333-3/2---|
E|-5-555555----------------------------|

e|---------------------------------------|
b|---------------------------------------|
g|---------------------------------------| verse b
d|----------9-999999-3-2/0---------------|
a|-7-777777-7-777777-------3-333-3/2-----|
E|-5-555555--------------------------3-3-|

e|---------------------------------------------------|
b|---------------------------------------------------|
g|-------------------------------------------2-0-2-0-|  bridge
d|---------------------------------------------------|
a|------2------3------2------3------2------3---------|
E|-"00"-0-"00"-1-"00"-0-"00"-1-"00"-0-"00"-1---------|

e|--------------------------------------|
b|--------------------------------------|
g|--------------------------------------| verse c
d|----------9-999999-10-1010-5-555-54---|
a|-7-777777-7-777777--8--8-8-3-333-32-5-|
E|-5-555555---------------------------3-|


e|---------------------------------------------------|
b|---------------------------------------------------|
g|---------------------------------------------------| chorus
d|--------------------------------------5-5----------|
a|-7-772223---5-552227---7-775553---5-553-37-5-7-5-7-|
E|-5-550001---3-330005---5-553331---3-33---5-3-5-3-5-|

e|-----------------------------|
b|-----------------------------|
g|-4*-----4*-----4*-----4*--7--| pre-solo chords
d|-2*-----2*-----2*-----2*--5--|
a|-----------------------------|
E|-----------------------------|
[ Tab from: http://www.guitartabs.cc/tabs/o/oxymoron/bleed_tab_ver_2.html ]
e|---------------------------------------------------------|
b|---------------------------------------------------------|
g|-14/9/14/9/14/9/14/9/12/9/12/9/12/9/12/9/10-1010-1010-10-| solo
d|---------------------------------------------------------|
a|---------------------------------------------------------|
E|---------------------------------------------------------|

e|--------------------------------------------------------------------|
b|--------------------------------------------------------------------|
g|-1010101012-14/9/14/9/14/9/14/9/12/9/12/9/12/9/12/9/10-1010-1010-10-|
d|--------------------------------------------------------------------|
a|--------------------------------------------------------------------|
E|--------------------------------------------------------------------|


e|-------------------------------------------------------------------|
b|-------------------------------------------------------------------|
g|-1010101012-14----14-12-14-12-10--...16-17-16-14-12-14----14-12-14-|
d|---------------14--------------------------------------14----------|
a|-------------------------------------------------------------------|
E|-------------------------------------------------------------------|

e|-------------------------------------------------------------|
b|-------------8/10-8----8---------10-8-10-8---------10-8-10-8-|
g|-12-10--9/10--------10---9*----------------9*----------------|
d|-------------------------------------------------------------|
a|-------------------------------------------------------------|
E|-------------------------------------------------------------|
                          ||2nd guitar does bridge x2 til end.||
e|--------
b|-10...V-
g|--------| end solo.
d|--------|
a|--------|
E|--------|

e|----------------------------------------|
b|----------------------------------------|
g|----------------------------------------|
d|----------9-999999-10-1010-9-99-5-55----| ending verse
a|-7-777777-7-777777--8--8-8-7-77-3-33-5--|
E|-5-555555----------------------------3--|

e|----------|
b|----------|
g|----------| end.
d|----------|
a|-7-772223-|
E|-5-550001-|

SONG ORDER
-----------
intro x2
verse a x2
verse b x2
bridge x2
verse c x4
bridge x2
chorus x2
intro x2
pre-solo chords
solo (2nd guitar bridge during last part)
chorus x2
ending verse x4
bridge x2
end
         once again, an awesome song. sorry about my other tab for it, i
sucked when i made that. this one should be completely accurate though.
enjoy.
Comments