Oxymoron - Bleed Chords & Tabs

 

Bleed Chords & Tabs

Oxymoron Chords & Tabs

Version: 1 Type: Tab 0 ratings
1 star 2 stars 3 stars 4 stars 5 stars
comments

Bleed Tab

   
                                  BLEED
                               '''''''''''
                                OXYMORON
                        tabbed by: matt goolsby

"00" palm mute
* emphasize/hold
~ fall/ slide down

e|----------------------------------------------|
b|----------------------------------------------|
g|----------------------------------------------| intro x2
d|----------9-999999-15-14-12-10-101010-10-9----|
a|-7-777777-7-777777-------------------------10-|
E|-5-555555-------------------------------------|

|-------------------------------------|
|-------------------------------------|
|-------------------------------------|  verse a x2
|----------9-999999-3-2-0-------------|
|-7-777777-7-777777-------3-333-3-2---|
|-5-555555--------------------------3-|

|------------------------------------|
|------------------------------------|
|------------------------------------|
|----------9-999999-10-99-5-555-44---|  verse b x2
|-7-777777-7-777777--8-77-3-333-22-5-|
|-5-555555-------------------------3-|

|---------------------------------------------------|
|---------------------------------------------------|
|-------------------------------------------2-0-2-0-|  bridge x2
|---------------------------------------------------|
|------2------3------2------3------2------3---------|
|-"00"-0-"00"-1-"00"-0-"00"-1-"00"-0-"00"-1---------|

|---------------------------------------------|
|---------------------------------------------|
|---------------------------------------------|  chorus
|------------------------------------5-5------|
|-7-7-2223--5-5-2227--7-7-555-3--5-5-3-37-5-7-|
|-5-5-0001--3-3-0005--5-5-333-1--3-3----5-3-5-|
         bleed.....youre......go..youre shit to me
|-------------------------------|
|-------------------------------|
|----------------------------7--|  pre-solo riff
|----------------------------5--|
|-7*------7*------7*------7-----|
|-5*------5*------5*------5-----|
[ Tab from: http://www.guitartabs.cc/tabs/o/oxymoron/bleed_tab.html ]
|---------------------------------------------------------------|
|---------------------------------------------------------------|
|-14-14-14-14-12-12-12-12-10-1010-1010-1010-1010-12-14-14-14-14-|
|---------------------------------------------------------------|
|---------------------------------------------------------------|
|---------------------------------------------------------------|

|-------------------------------------------------------------------|
|-------------------------------------------------------------------|
|-12-12-12-12-10-1010-1010-1010-1010-12-14----14-12-14-12-10*/16-17-|
|------------------------------------------14-----------------------|
|-------------------------------------------------------------------|
|-------------------------------------------------------------------|

|-------------------------------------------------------------------|
|-------------------------------------8/10-8----8---------10-8-10-8-|
|-16-14-12-14----14-12-14-12-10--9/10--------10---9*----------------|
|-------------14----------------------------------------------------|
|-------------------------------------------------------------------|
|-------------------------------------------------------------------|

|-----------------------|
|---------10-8-10-8-10~-|
|-9*--------------------|  end solo
|-----------------------|
|-----------------------|
|-----------------------|

|------------------------------------------|
|------------------------------------------|
|------------------------------------------|    end verse
|----------9-999999-10-1010-9-99-5-55------|
|-7-777777-7-777777--8--8-8-7-77-3-33-5-55-|
|-5-555555----------------------------3-33-|
  bleed.............go ahead bleed........

|----------|
|----------|
|----------|  end
|-----9-95-|
|-7-7-7-73-|
|-5-5------|
           BLEED!


SONG ORDER
'''''''''''
intro x2
verse a x2
verse b x2
bridge x2
verse b x4
bridge x2
chorus x2
intro x2
pre-solo riff
solo
bridge x2
chorus x2
end verse x4
end

               this is another one of oxymoron's great songs. the tabs
should be pretty close to exact, but i didnt tab the exact solo. listen
and see if you can figure it out exactly, then tab it. enjoy
Comments