Owl City - Fireflies Chords & Tabs

 

Owl City Chords & Tabs

Version: 3 Type: Tab 0 ratings
1 star 2 stars 3 stars 4 stars 5 stars
comments

Fireflies Tab

   
Tabs by: Dave Cummins
Email: davidizkewl@hotmail.com

Notice: Transposed from the Tabs posted by NICK BROPHY
Email: nick.brophy@gmail.com


Tuning: E  Standard
               e
               B
               G
               D
               A
               e
e|-------10------------------------------------13p11\18-------------|
B|------------------------11-----16---------------------------------|
G|----10-------------10---------------15----------------------------|
D|--8--------------8------------------------------------------------|
A|------------------------------------------------------------------|
E|------------------------------------------------------------------|

e|------12p10---12\15-----------------------------------------------|
B|--------------------------------13-------------------16--18-------|
G|-----------------------------13----15------------15---------------|
D|----------------------13------------------------------------------|
A|--11-----------------------11----------------15-------------------|
E|------------------------------------------------------------------|


e|-------10----------18---------------------------16p15-------------|
B|------------------------------------16/18\16---------------16\11--|
G|----10----------15------15----------------------------------------|
D|--8----------15----------------11---------------------------------|
A|------------------------------------------------------------------|
E|------------------------------------------------------------------|
[ Tab from: http://www.guitartabs.cc/tabs/o/owl_city/fireflies_tab_ver_3.html ]
e|------------------------------------------------11h13-------------|
B|--------13---------11----------13-----13p11-----------------------|
G|------------------------------------------------------------------|
D|-----13---------13----------13------------------------------------|
A|--11---------11----------11---------------------------------------|
E|------------------------------------------------------------------|


CHORUS
   
e|--4---------------6------4-------------3------4------------8------|
B|--4-------8-------6------4------8------3------4------------8------|
G|--5-------8-------7------5------8------3------5------------8------|
D|--6-------8-------8------6------8------5------6------------10-----|
A|--6-------6-------8------6------6------5------6------------10-----|
E|--4---------------6------4-------------3------4------------8------|


  
e|------------------------------------------------------------------|
B|--6----------------------------------16/18------------------------|
G|--8--------13/17\15-------15--------------------------------------|
D|--7---------------------------------------------------------------|
A|--8---------------------------------------------------------------|
E|------------------------------------------------------------------|

OUTRO---(x4)------            ----(x4)------------------------------|
e|---18----------------------17-------------------------------------|
B|--------18----------------------18--------------------------------|
G|------------20------------------------20--------------------------|
D|------------------------------------------------------------------|
A|------------------------------------------------------------------|
E|------------------------------------------------------------------|
Comments