Owl City - Fireflies Chords & Tabs

 

Owl City Chords & Tabs

Version: 1 Type: Tab 0 ratings
1 star 2 stars 3 stars 4 stars 5 stars
comments

Fireflies Tab

   
-------------------------------------------------------------------------------
			     Fireflies - Owl City
-------------------------------------------------------------------------------
Tabbed by: NICK BROPHY
Email: nick.brophy@gmail.com   <--Please email me with feedback!

Please listen to my tunes @
					myspace.com/nickbrophy

Thanks so much!  For a video tutorial, please visit: youtube.com/nickbrophymusic

Tips:  Use a heavy delay.  I use the Line 6 DL-4 and set the mix to a little over 12:00. 
roll back your tone knob(s) on your guitar to get the muffled synth-ish tone.  It's the 
part, but on guitar!

Tuning: Standard

INTRO/VERSES
e|----------22---------------18------------------------------------------------|
B|-------------------------------------------------------18p16------18/23------|
G|---------------------------------------20------------------------------------|
D|------20--------------20-----------------------------------------------------|
A|-----------------------------------------------18----------------------------|
E|--18------------18-----------------------------------------------------------|

e|---------------------------------------------------------------------------|
B|---------------------------------------------------------------------------|
G|--------X-----17p15-----17/20---------------------------------------20--22-|
D|------------------------------------------------18/22\20-------20----------|
A|--------------------------------18-----------------------------------------|
E|---16------------------------------------16----------------20--------------|

e|-------------22---------------18------------------------16p15--------------|
B|--------------------------------------------16/18\16--------------16\11----|
G|---------------------------------------------------------------------------|
D|--------20---------------20------------------------------------------------|
A|-------------------20----------------18------------------------------------|
E|---18----------------------------------------------------------------------|
[ Tab from: http://www.guitartabs.cc/tabs/o/owl_city/fireflies_tab.html ]
e|---------------------------------------------------------------11h13-------|
B|-------------13---------------11--------------13------13p11----------------|
G|---------------------------------------------------------------------------|
D|--------13---------------13---------------13-------------------------------|
A|---11---------------11--------------11-------------------------------------|
E|---------------------------------------------------------------------------|


CHORUS
   Ab	     Eb	     Bb	         Ab     Eb	    Gm	   Ab  Ab  Eb   Ab   Bb Cm
e|--4---------------6----------4-------------3------4-------------------8------|
B|--4-------8-------6----------4------8------3------4-------------------8------|
G|--5-------8-------7----------5------8------3------5-------------------8------|
D|--6-------8-------8----------6------8------5------6-------------------10-----|
A|--6-------6-------8----------6------6------5------6-------------------10-----|
E|--4---------------6----------4-------------3------4-------------------8------|


   Ab	     Eb	    F7  (Engage phaser)
e|---------------------------------------------------------------------------|
B|-----------------6------------------------16/18----------------------------|
G|-----------------8----13/17\15-----15--------------------------------------|
D|-----------------7---------------------------------------------------------|
A|-----------------8---------------------------------------------------------|
E|---------------------------------------------------------------------------|

OUTRO---(x4)------            ----(x4)-----------------------------------------|
e|---23----------------------22------------------------------------------------|
B|--------23-----------------------23------------------------------------------|
G|--------------22----------------------22-------------------------------------|
D|-----------------------------------------------------------------------------|
A|-----------------------------------------------------------------------------|
E|-----------------------------------------------------------------------------|


************************************

| /   slide up
| \   slide down
| h   hammer-on
| p   pull-off
| ~   vibrato
| +   harmonic
| x   Mute note
| b   Bend
| pb  Pre-bend
| br  Bend release
| pbr Pre-bend release
| brb Bend release bend

************************************
Comments