Owen - Ghost Of What Shouldve Been Chords & Tabs

 

Ghost Of What Shouldve Been Chords & Tabs

Owen Chords & Tabs

Version: 1 Type: Tab 0 ratings
1 star 2 stars 3 stars 4 stars 5 stars
comments

Ghost Of What Shouldve Been Tab

The Ghost of What Should've Been (Taken From Live Version) mxpxssml4@hotmail.com
Capo 6th fret
F----------------0     ---------     -------|
B----------------0     7---7----     /5-4-0-|
D----------------0     8---8----     /5-3-0-|
D#-------0-------0     --6------     -------|
B------4---4h0---      -------7-     -------|
D#-0h2---------0-      ---------     -------|
[ Tab from: http://www.guitartabs.cc/tabs/o/owen/ghost_of_what_shouldve_been_tab.html ]
---------------------------  -0-  -------------0-  ------------------|
---------------7---------0-  -0-  -2p0h2h4p2p0-0-  ------------------|
----------------8-------3--  -3-  -3~~~~~~~~~~-5-  -8-8-8-8--8-8-8-8-|
-------4---------6---0h2---x2-2-  -------------4-  -7-7-7-7--6-6-6-6-|
------4-----------7-4------  -4-  ---------------  ------------------|
-0h2/4---0h2/4-------------  ---  ---------------  ------------------|
Comments