Owen - Breaking Away Chords & Tabs

 

Breaking Away Chords & Tabs

Owen Chords & Tabs

Version: 2 Type: Tab

Breaking Away Tab

"Breaking Away"
by Owen (Mike Kinsella) from "(The EP)"

Tuning from low to high: DAEAC#E

Capo on the 6th fret


Verse progression

E |-------------------------0------|
C#|--0------0-------0h1------------|
A |--|--0------0----|----0-----0---|
E |--|-0------0-----|---2-----2----|
A |--0-----0--------0--------------|
D |------------------------0-------| (3 times)

E |---------0--------------0-------|
C#|--0--------------0--------------|
A |--|--0------0----|--0------0----|
E |--|-0------0-----|-0------0-----|
A |--|-----4--------|-----4--------|
D |--4--------------4--------------| (1 time)

play both parts together a total of 4 times, except on the 4th one, end with Pre-Chorus 1

Pre-Chorus 1

Anyway, I'm here...

E |---------0----------0-----------|
C#|--0--------------5------0-------|
A |--|--0------0----|-0------0-----|
E |--|-0------0-----|--------------|
A |--|-----4--------|----5---------|
D |--4--------------5--------------|

E |-----------------------------|
C#|----------0------------------|
A |--2p0--2-----------0---------|
E |---------------0h2-------4---|
A |-------------4-----------2---|
D |--4-------------------2------|

Chorus 1

I'm a bicycle...

E |---------0--------------0-----|
C#|--0--------------0------------|
A |--|--0------0----|--0------0--|
E |--|-4------4-----|-4------4---|
A |--|-----0--------|-----2------|
D |--0--------------2------------|

E |---------0--------------0--------------0-----|
C#|--0--------------0--------------0------------|
A |--|--0------0----|--0------0----|--0------0--|
E |--|-4------4-----|-4------4-----|-4------4---|
A |--|-----0--------|-----4--------|-----2------|
D |--0--------------4--------------2------------|

E |---------0--------------0-----|
C#|--0--------------0------------|
A |--|--0------0----|--0------0--|
E |--|-4------4-----|-4------4---|
A |--|-----0--------|-----2------|
D |--0--------------2------------|

E |---------0--------------0--------------0-----|
C#|--0--------------0--------------0------------|
A |--|--0------0----|--0------0----|--0------0--|
E |--|-4------4-----|-4------4-----|-4------4---|
A |--|-----0--------|-----4--------|-----2------|
D |--0--------------4--------------2------------|

E |---------0--------------0--------------0-----|
C#|--0--------------0--------------0------------|
A |--|--0------0----|--0------0----|--0------0--|
E |--|-4------4-----|-4------4-----|-4------4---|
A |--|-----2--------|-----2--------|-----2------|
D |--2--------------2--------------2------------|

E |---------0--------------0-----|
C#|--0--------------0------------|
A |--|--0------0----|--0------0--|
E |--|-4------4-----|-4------4---|
A |--|-----0--------|-----2------|
D |--0--------------2------------|

Post-Chorus 1

E |-------------------------0------|
C#|--0------0-------0h1------------|
A |--|--0------0----|----0-----0---|
E |--|-0------0-----|---2-----2----|
A |--0-----0--------0--------------|
D |------------------------0-------|

E |---------------------0h2p0--------|
C#|--0------0-------0h1-------1p0----|
A |--|--0------0----|-------------0--|
E |--|-0------0-----|----------------|
A |--0-----0--------0----------------|
D |----------------------------------|

E |-------------------------0------|
C#|--0------0-------0h1------------|
A |--|--0------0----|----0-----0---|
E |--|-0------0-----|---2-----2----|
A |--0-----0--------0--------------|
D |------------------------0-------|

E |---------0----------0-----------|
C#|--0--------------5------0-------|
A |--|--0------0----|-0------0-----|
E |--|-0------0-----|--------------|
A |--|-----4--------|----5---------|
D |--4--------------5--------------|

E |-------------------------5---|
C#|----------0--------------3---|
A |--2p0--2-----------0---------|
E |---------------0h2-----------|
A |-------------4---------------|
D |--4-------------------0------|

Verse Progression

E |-------------------------0------|
C#|--0------0-------0h1------------|
A |--|--0------0----|----0-----0---|
E |--|-0------0-----|---2-----2----|
A |--0-----0--------0--------------|
D |------------------------0-------| (3 times)

E |---------0--------------0-------|
C#|--0--------------0--------------|
A |--|--0------0----|--0------0----|
E |--|-0------0-----|-0------0-----|
A |--|-----4--------|-----4--------|
D |--4--------------4--------------| (1 time)

play both parts together a total of 4 times, except on the 4th one, end with Pre-Chorus 2

Pre-Chorus 2

Either way, we're here...
[ Tab from: http://www.guitartabs.cc/tabs/o/owen/breaking_away_tab_ver_2.html ]
E |---------0----------0-----------|
C#|--0--------------5------0-------|
A |--|--0------0----|-0------0-----|
E |--|-0------0-----|--------------|
A |--|-----4--------|----5---------|
D |--4--------------5--------------|

E |--------------------------------------|
C#|----------0---------------------------|
A |--2p0--2-----------0------------------|
E |---------------0h2------------0h4~~~~-|
A |-------------4------------0h2~~~~~~~~-|
D |--4--------------------2--------------|

Chorus 2

E |---------0--------------0-----|
C#|--0--------------0------------|
A |--|--0------0----|--0------0--|
E |--|-4------4-----|-4------4---|
A |--|-----0--------|-----2------|
D |--0--------------2------------|

E |---------0--------------0--------------0-----|
C#|--0--------------0--------------0------------|
A |--|--0------0----|--0------0----|--0------0--|
E |--|-4------4-----|-4------4-----|-4------4---|
A |--|-----0--------|-----4--------|-----2------|
D |--0--------------4--------------2------------|

E |---------0--------------0-----|
C#|--0--------------0------------|
A |--|--0------0----|--0------0--|
E |--|-4------4-----|-4------4---|
A |--|-----0--------|-----2------|
D |--0--------------2------------|

E |---------0--------------0--------------0-----|
C#|--0--------------0--------------0------------|
A |--|--0------0----|--0------0----|--0------0--|
E |--|-4------4-----|-4------4-----|-4------4---|
A |--|-----0--------|-----4--------|-----2------|
D |--0--------------4--------------2------------|

E |---------0--------------0--------------0-----|
C#|--0--------------0--------------0------------|
A |--|--0------0----|--0------0----|--0------0--|
E |--|-4------4-----|-4------4-----|-4------4---|
A |--|-----2--------|-----2--------|-----2------|
D |--2--------------2--------------2------------|

We're two bicycles...

E |---------0--------------0-----|
C#|--0--------------0------------|
A |--|--0------0----|--0------0--|
E |--|-4------4-----|-4------4---|
A |--|-----0--------|-----2------|
D |--0--------------2------------|

E |---------0--------------0--------------0-----|
C#|--0--------------0--------------0------------|
A |--|--0------0----|--0------0----|--0------0--|
E |--|-4------4-----|-4------4-----|-4------4---|
A |--|-----0--------|-----4--------|-----2------|
D |--0--------------4--------------2------------|

E |---------0--------------0-----|
C#|--0--------------0------------|
A |--|--0------0----|--0------0--|
E |--|-4------4-----|-4------4---|
A |--|-----0--------|-----2------|
D |--0--------------2------------|

E |---------0--------------0--------------0-----|
C#|--0--------------0--------------0------------|
A |--|--0------0----|--0------0----|--0------0--|
E |--|-4------4-----|-4------4-----|-4------4---|
A |--|-----0--------|-----4--------|-----2------|
D |--0--------------4--------------2------------|

E |---------0--------------0--------------0-----|
C#|--0--------------0--------------0------------|
A |--|--0------0----|--0------0----|--0------0--|
E |--|-4------4-----|-4------4-----|-4------4---|
A |--|-----2--------|-----2--------|-----2------|
D |--2--------------2--------------2------------|

E |---------0--------------0-----|
C#|--0--------------0------------|
A |--|--0------0----|--0------0--|
E |--|-4------4-----|-4------4---|
A |--|-----0--------|-----2------|
D |--0--------------2------------|

Outro

E |-------------------------0------|
C#|--0------0-------1--------------|
A |--|--0------0----|----0-----0---|
E |--|-0------0-----|---3-----3----|
A |--0-----0--------|------2-------|
D |-----------------2--------------|

E |-------------------------0------|
C#|--0------0-------1--------------|
A |--|--0------0----|----0-----0---|
E |--|-0------0-----|---0-----0----|
A |--0-----0--------|------2-------|
D |-----------------2--------------|

E |--------------------0-----------|
C#|--0------0-------5------0-------|
A |--|--0------0----|-0------0-----|
E |--|-0------0-----|--------------|
A |--0-----0--------|----5---------|
D |-----------------5--------------|

E |---------------------------0-----------------------------------|
C#|----------0----------------|-------0---------------------------|
A |--2p0--2-----------0-------|-------|---------------------------|
E |--|------------0h2---------4-------5-------------0h4--5--------|
A |--|----------4-----------2-------4---------0h2h4----------0----|
D |--4--------------------2-------4--------0----------------------|

tabbed by Charles Tran (charles(at)onetransmission.com)