Owen - Bed Abuse Chords & Tabs

 

Bed Abuse Chords & Tabs

Owen Chords & Tabs

Version: 1 Type: Tab 0 ratings
1 star 2 stars 3 stars 4 stars 5 stars
comments

Bed Abuse Tab

Owen-Bed Abuse
Album: I Do Perceive
Tuning: FADGBE

This song has 2 acoustic guitars in it and like some weird background electric/piano 
but with even 2 acoustics it sounds amazing
[ Tab from: http://www.guitartabs.cc/tabs/o/owen/bed_abuse_tab.html ]
Guitar 1-(plays this pretty much through the entire song-listen for strumming pattern)
E 0----0----0-|
B 0----0----0-|
G 6----4----2-|
D 6----4----2-|
A 4----2----0-|
F-x----x----x-|
Guitar 2-(fingerpicking may be easier)
E--------------------------------------------------------------------|
B----------7p5p0------------44/5/4-0-----------2-----0--------------|
G--------------------------------------------------------------------|
D------6-------------------------------------------2-----2-----2-----|
A4--------------------2--------------------0------------------------|
F--------------------------------------------------------------------|
E--------------------------------------------------------------------|
B----------7p5p0--------44/5/4p2p0-------------2-----0--------------|
G--------------------------------------------------------------------|
D------6--------------------------------------------2-----2-----2----|
A4------------------2-----------------------0-----------------------|
F--------------------------------------------------------------------|
   You just repeat between these two riffs for the intro and pretty much the entire song 
the outro...then


 "Its more me than youuuuu"-Guitar 1
E-----------2----0----------2-----0----------2----0------------2h4(p)0----|
B--------0---------------0-----------------0----------------0-------------|
G-------------------------------------------------------------------------|
D-------------2---------------2------------------2------------------------|
A---0-----------------0-----------------------------------2---------------|
F----------------------------------------3--------------------------------|
Note: Notice that you play the above riff twice while only playing the below riff 
once  aka above riff played twice=below riff played once

Guitar 2
E----4h55h75p4/22h4p2----0--------0---------------------------------------|
B--------------------------------4h5/7--/5/4p0-------------------------------|
G----------------------------------------------1h2-4-2p1----1h2-4-2p1---1----|
D--------------------------------------------------------2-------------4--2--|
A----------------------------------------------------------------------------|
F----------------------------------------------------------------------------|

Electric Distorted
E22p0-2p042p0-2p0--------7--|
B-----------------------45-----|
G-------------------------------|
D-------------------------------|
A-------------------------------|
E-------------------------------|
Comments