Overkill - Wrecking Crew Chords & Tabs

 

Wrecking Crew Chords & Tabs

Overkill Chords & Tabs

Version: 2 Type: Tab 0 ratings
1 star 2 stars 3 stars 4 stars 5 stars
comments

Wrecking Crew Tab

   
Band:  Overkill
Album: Taking Over
Song:  Wrecking Crew

Copyright (c)  (Atlantic) (1987)
Version 1.0 - (02/04/05)

Transcribed By: Steve
Email:          stephen.elvidge1@ntlworld.com


.  - palm mute           /  - slide up to
\  - slide down to       ~  - vibrato
h  - hammer on           b  - Bend
p  - pull off            Suffixes for bend
t  - tap                 f  - full bend    h - half bend
ph - pinched harmonic    q  - quarter bend t - tap bend
*  - see comment         ^  - Hold bend    r release bend
x  - Stuccatto           ~  - vibrato bend
,  - slight palm mute    () - ghost note, sustained note
"  - tremolo note        <> - Trill

Tunning E A D G B E
 

 Intro

        h   h   h   h           h   h   h
E-------------------------------------------|
B-------------------------------------------|
G-------------------------------------------|
D-9-9-9---------5p0-----9-9-9---------------|
A-7-7-7-5p0---------5p0-7-7-7-0-3p0-3p0-----|
E---0-------5p0-----------0-------------3p0-|

        h   h   h   h   h    h    h    h    h    h    h    h
E----------------------------------------------------------------|
B----------------------------------------------------------------|
G-----------------------3p2p0-----3p2p0-----3p2p0-----3p2p0------|
D-9-9-9---------5p0----------3p2p0-----3p2p0-----3p2p0-----3p2p0-|
A-7-7-7-5p0---------5p0------------------------------------------|
E---0-------5p0--------------------------------------------------|

 Main Riff

  [--PM--]  [--PM---]   [--PM---]  [--PM--]   [-PM-]
E----------------------------------------------------|
B----------------------------------------------------|
G---------9-----------9-----------9----------9-----9-|
D---------9-----------9-----------9----------9-----9-|
A---------7-----------7-----------7----------7-----7-|
E-0-0-0-0---0-0-0-0-0---0-0-0-0-0---0-0-0-0----0-0---| Rpt 3 X

 [--PM--]   [--PM---]  [--PM-]
E-----------------------------------|
B-----------------------------------|
G---------9-----------9-------9--9--|
D---------9-----------9-------9--9--|
A---------7-----------7-------7--7--|
E-0-0-0-0---0-0-0-0-0---0-7-0-------|

 With drums and bass

  [--PM--]  [--PM---]   [--PM---]  [--PM--]   [-PM-]
E----------------------------------------------------|
B----------------------------------------------------|
G---------9-----------9-----------9----------9-----9-|
D---------9-----------9-----------9----------9-----9-|
A---------7-----------7-----------7----------7-----7-|
E-0-0-0-0---0-0-0-0-0---0-0-0-0-0---0-0-0-0----0-0---| Rpt 3 X

 [--PM--]   [--PM---]  [--PM-]
E-----------------------------------|
B-----------------------------------|
G---------9-----------9-------9-----|
D---------9-----------9-------9-----|
A---------7-----------7-------7-----|
E-0-0-0-0---0-0-0-0-0---0-7-0-------|

 Verse Riff

E-------------------------------------------------|
B-------------------------------------------------|
G-------------------------------------------------|
D-7------------5------------5------5-----/7-------|
A-5------------3------------2------3-----/5-------|
E-------------------------------------------------|

 Rpt Main Riff once
 Rpt Verse Riff
 Rpt Main Riff
 Rpt Verse Riff
 Rpt Main Riff
 Rpt Verse Riff
 Rpt Main Riff

 Bridge

E-------------------------------------------------------------------|
B-7--------7------8--------8------7---/8---/10----(10)--------------|
G-6------6---6----7------7---7----6---/7---/9-----(9)---------------|
D-4------------4-/5------------5-\4---/5---/7-----(7)---------------|
A-------------------------------------------------------------------|
E-------------------------------------------------------------------|

 Chorus

E----------------------------|
B----------------------------|
G----------------------------|
D-4-4--4/7-7--7\2-2--2-9\7/9-|
A-2-2--2/5-5--5\0-0--0-7\5/7-|
E----------------------------|

                        [-------PM------]
E-----------------------------------------|
B-----------------------------------------|
G-----------------------------------------|
D-4-4--4/7-7--7\2-2--2---4-4-4-4-4--------|
A-2-2--2/5-5--5\0-0--0---2-2-2-2-2-0------|
E------------------------------------3-0--|

E---------------------------|
B---------------------------|
G---------------------------|
D-4-4--4/7-7--7\2-2-2-9\7/9-|
A-2-2--2/5-5--5\0-0-0-7\5/7-|
E---------------------------|

E-------------------------------|
B-------------------------------|
G-------------------------------|
D-4-4--4/7-7--7\2-2--2-4--4--4\-|
A-2-2--2/5-5--5\0-0--0-2--2--2\-|
E-------------------------------| 

 Rpt Main Riff

 [--PM--]   [--PM---]   h    h    h    h    h    h
E-----------------------3p2p0-----3p2p0----------------|
B----------------------------3p2p0-----3p2p0-----------|
G---------9-----------9---------------------4p2p0------|
D---------9-----------9--------------------------4p2p0-|
A---------7-----------7--------------------------------|
E-0-0-0-0---0-0-0-0-0----------------------------------|

 Rpt Main Riff
[ Tab from: http://www.guitartabs.cc/tabs/o/overkill/wrecking_crew_tab_ver_2.html ]
 [--PM--]   [--PM---]  [--PM-]
E-----------------------------------|
B-----------------------------------|
G---------9-----------9-------9-----|
D---------9-----------9-------9-----|
A---------7-----------7-------7-----|
E-0-0-0-0---0-0-0-0-0---0-7-0-------|

 Rpt Verse, Bridge.
 Rpt Chorus with alternative ending.

                        [-------PM------]
E-----------------------------------------|
B-----------------------------------------|
G-----------------------------------------|
D-4-4--4/7-7--7\2-2--2-----6-6-6-6-6-6-6--|
A-2-2--2/5-5--5\0-0--0-4-2-4-4-4-4-4-4-4--|
E-----------------------------------------|

E--------------------------------|
B--------------------------------|
G--------------------------------|
D-6-6--6/9-9--9\4-4--4/11\9-/11--|
A-4-4--4/7-7--7\2-2--2/9-\7-/9---|
E--------------------------------|
                        [------PM-----]
E---------------------------------------|
B---------------------------------------|
G---------------------------------------|
D-6-6--6/9-9--9\4-4--4/6-6-6-6----------|
A-4-4--4/7-7--7\2-2--2/4-4-4-4-4-2------|
E----------------------------------4p3--|

E-----------------------|
B-----------------------|
G-----------------------|
D-6-6--6/9-9--9\4-4--4--|
A-4-4--4/7-7--7\2-2--2--|
E-----------------------|

 Rpt Intro 2 X
  
 Backing for guitar solo  
   PM   [------PM------]  PM   [------PM------]
E-----------------------------------------------|
B-----------------------------------------------|
G-9---9------------------7---7------------------|
D-9---9------------------7---7------------------|
A-7-7-7--7-7-7-7-7-7-7-7-5-5-5--5-5-5-5-5-5-5-5-|
E-----------------------------------------------|
   PM   [------PM------]  PM   [------PM------]
E-----------------------------------------------|
B-----------------------------------------------|
G-5---5------------------7---7------------------|
D-5---5------------------7---7------------------|
A-3-3-3--3-3-3-3-3-3-3-3-5-5-5--5-5-5-5-5-5-5-5-|
E-----------------------------------------------|

   PM   [------PM------]  PM   [------PM------]
E-----------------------------------------------|
B-----------------------------------------------|
G-9---9------------------7---7------------------|
D-9---9------------------7---7------------------|
A-7-7-7--7-7-7-7-7-7-7-7-5-5-5--5-5-5-5-5-5-5-5-|
E-----------------------------------------------|
   PM   [------PM------]     
E---------------------------------------------|
B---------------------------------------------|
G-5---5---------------------------------------|
D-5---5------------------7-7-7-6-2-4-4-4-5-7--|
A-3-3-3--3-3-3-3-3-3-3-3-5-5-5-4-0-2-2-2-3-5--|
E---------------------------------------------| Rpt


E---------------------------------------------|
B---------------------------------------------|
G-9-9-9------------------7-7-7----------------|
D-9-9-9------------------7-7-7----------------|
A-7-7-7------------------5-5-5----------------|
E---------------------------------------------|

E---------------------------------------------|
B---------------------------------------------|
G-5-5-5---------------------------------------|
D-5-5-5---------------------------------------|
A-3-3-3------------------5-5-5-4-0-2-2-2-3-5--|
E---------------------------------------------| Rpt

 Rpt Main Riff

 [--PM--]   [--PM---]  PM  [PM-]
E-------------------------------------|
B-------------------------------------|
G---------9-----------9---------9--9--|
D---------9-----------9---9-----9--9--|
A---------7-----------7---7-----7--7--|
E-0-0-0-0---0-0-0-0-0---0---0-0-------|

 Rpt Main Riff 2 X
 Rpt Verse

 Last Chorus

E----------------------------|
B----------------------------|
G----------------------------|
D-4-4--4/7-7--7\2-2--2-9\7/9-|
A-2-2--2/5-5--5\0-0--0-7\5/7-|
E----------------------------|

E---------------------------------|
B---------------------------------|
G---------------------------------|
D-4-4--4/7-7--7\2-2--2---4--------|
A-2-2--2/5-5--5\0-0--0---2--------|
E---------------------------------|Rpt

E----------------------------|
B----------------------------|
G----------------------------|
D-4-4--4/7-7--7\2-2--2-9\7/9-|
A-2-2--2/5-5--5\0-0--0-7\5/7-|
E----------------------------|

E-----------------------|
B-----------------------|
G-----------------------|
D-4-4--4/7-7--7\2-2--2--|
A-2-2--2/5-5--5\0-0--0--|
E-----------------------|

 Ending
        h   h   h   h           h   h   h
E-------------------------------------------|
B-------------------------------------------|
G-------------------------------------------|
D-9-9-9---------5p0-----9-9-9---------------|
A-7-7-7-5p0---------5p0-7-7-7-0-3p0-3p0-----|
E---0-------5p0-----------0-------------3p0-|

                    [-------------------PM---------------------]
                                 h              h              h
E----------------------------------------------------------------|
B----------------------------------------------------------------|
G----------------------------------------------------------------|
D-9-9-9---------5p0-7-5------------7-5------------7-5------------|
A-7-7-7-5p0-------------7--6p5-3-5-----7--6p5-3-5-----7--6p5-3-5-|
E---0-------5p0--------------------------------------------------|



E--------------|
B--------------|
G-9-9--9--9-\--|
D-9-9--9--9-\--|
A-7-7--7--7-\--|
E--------------|



END
Comments