Overkill - Rotten To The Core Chords & Tabs

 

Rotten To The Core Chords & Tabs

Overkill Chords & Tabs

Version: 1 Type: Tab 0 ratings
1 star 2 stars 3 stars 4 stars 5 stars
comments

Rotten To The Core Tab

                      Overkill : Rotten To The Core


             play3 times          (riff1)                               
E------------|----------------------------------------------------------
B------------|----------------------------------------------------------
G---5-----7--|--9--------9-----------9--------9-----------9--------9----
D---5--5--7--|--9--------9--------8--9--------9--------8--9--------9----
A---3--5--5--|--7--------7--------8--7--------7--------8--7--------7----
E------3-----|-----0--0-----0--0--6-----0--0-----0--0--6-----0--0-------
                                                                        

                                                                        
E---------------------------------|-------------------------------------
B---------------------------------|-------------------------------------
G---------------------------------|--9--------9-----------9--------9----
D---------8--8--------4--------5--|--9--------9--------8--9--------9----
A---------8--8--------4--------5--|--7--------7--------8--7--------7----
E---0--0--6--6--0--0--2--0--0--3--|-----0--0-----0--0--6-----0--0-------
                                                                        

                                                                        
E------------------------------------------------|----------------------
B------------------------------------------------|----------------------
G------------9--------9--------------------------|----------------------
D---------8--9--------9--------8--8-----------3--|----------------------
A---------8--7--------7--------8--8--0--1--3-----|----------------------
E---0--0--6-----0--0-----0--0--6--6--------------|----------------------
                                                                        

    play riff 1 4 times        then play chorus riff                    
E-----------------------------------------------------------------------
B-----------------------------------------------------------------------
G---5-----7--------4--------5--------7--------5--------5-----7----------
D---5--5--7--------2--------3--------5--------3--------5--5--7----------
A---3--5--5--------------------------------------------3--5--5----------
E------3-----0--0-----0--0-----0--0-----0--0-----0--0-----3-----0--0----
                                                                        

                                                                        
E-----------------------------------------------------------------------
B-----------------------------------------------------------------------
G---4--------5--------7--------5--------5-----7--------4--------5-------
D---2--------3--------5--------3--------5--5--7--------2--------3-------
A---------------------------------------3--5--5-------------------------
E------0--0-----0--0-----0--0-----0--0-----3-----0--0-----0--0-----0----
                                                                        

                                                                        
E-----------------------------------------------------------------------
B-----------------------------------------------------------------------
G------7--------5-----------------5-----7--------4--------5--------7----
D------5--------3-----------------5--5--7--------2--------3--------5----
A---------------------------------3--5--5-------------------------------
E---0-----0--0-----0--0--------------3-----0--0-----0--0-----0--0-------
                                                                        

                                                                        
E-----------------------------------------------------------------------
B-----------------------------------------------------------------------
G---------5-----------------2--4--7--5--------4--------5--------7-------
D---------3-----------------0--2--5--3--------2--------3--------5-------
A-----------------------------------------------------------------------
E---0--0-----0--0-----------------------0--0-----0--0-----0--0-----0----
                                                                        

                                                                        
E-----------------------------------------------------------------------
B-----------------------------------------------------------------------
G------5--------2--2--------4--------5--------7--------5-----------2----
D------3--------0--0--------2--------3--------5--------3-----------0----
A-----------------------------------------------------------------------
E---0-----0--0--------0--0-----0--0-----0--0-----0--0-----0--0----------
                                                                        

                                                                        
E-----------------------------------------------------------------------
B-----------------------------------------------------------------------
G---4--7--5-----------------------4--------5--------7--------5----------
D---2--5--3-----------------------2--------3--------5--------3----------
A-----------------------------------------------------------------------
E---------------------------0--0-----0--0-----0--0-----0--0-----0--0----
                                                                        

                                                                        
E---------|-------------------------------------------------------------
B---------|-------------------------------------------------------------
G---2--2--|-------------------------------------------------------------
D---0--0--|--------------2h3--------------------------------------------
A---------|-------------------------5h7--------3h5--------2h3-----------
E---------|--------0--0-------0--0-------0--0-------0--0-------0--0-----
                                                                        

                                                                        
E-------------------------------------------|---------------------------
B-------------------------------------------|---------------------------
G-------------------------5--4--5--7--5--7--|--9--------9---------------
D-------------------------5--4--5--7--5--7--|--9--------9--------8------
A---2h3--------5h7--------3--2--3--5--3--5--|--7--------7--------8------
E--------0--0-------0--0--------------------|-----0--0-----0--0--6------
                                                                        

                                                                        
E-----------------------------------------------------------------------
B-----------------------------------------------------------------------
G---9--------9-----------9--------9--------------------------------9----
D---9--------9--------8--9--------9--------8--8--------4--------5--9----
A---7--------7--------8--7--------7--------8--8--------4--------5--7----
E------0--0-----0--0--6-----0--0-----0--0--6--6--0--0--2--0--0--3-------
                                                                        

                                                                        
E-----------------------------------------------------------------------
B-----------------------------------------------------------------------
G---------9-----------9--------9-----------9--------9-------------------
D---------9--------8--9--------9--------8--9--------9--------8--8-------
A---------7--------8--7--------7--------8--7--------7--------8--8-------
E---0--0-----0--0--6-----0--0-----0--0--6-----0--0-----0--0--6--6-------
                                                                        

    play riff1 4 times then chorus                                      
E---|-------------------------------------------------------------------
B---|-------------------------------------------------------------------
G---|-------------------------------------------------------------------
D---|--------2h3--------------------------------------------2h3---------
A---|-------------------5h7--------3h5--------2h3-----------------------
E---|--0--0-------0--0-------0--0-------0--0----------0--0-------0------
                                                                        

                                                                        
E-----------------------------------------------------------------------
B-----------------------------------------------------------------------
G-----------------------------------------------------------------------
D----------------------------------3--2--------2h3----------------------
A------5h7--------3h5-----------5--3--2-------------------5h7-----------
E---0-------0--0-------0--0-----5--1--0--0--0-------0--0-------0--0-----
                                                                        

                                                                        
E-----------------------------------------------------------------------
B-----------------------------------------------------------------------
G--------------------------------------------------5--4--5--7--5--7-----
D--------------------------------------------------5--4--5--7--5--7-----
A---3h5--------2h3--------2h3--------5h7-----------3--2--3--5--3--5-----
E--------0--0-------0--0-------0--0-------------------------------------
                                                                        

                                                                        
E-----------------------------------------------------------------------
B-----------------------------------------------------------------------
G---9-------------------------------------------------------------------
D---9--------------------------------------3--0--2----------------------
A---7-----------------------------------------------5--3--5p3-----------
E------0--0--0--0--0--0--0--0--0--0--0--0----------------------5--0-----
                                                                        

                                                                        
E-----------------------------------------------------------------------
B-----------------------------------------------------------------------
G------------------5--4--7--5-------------------------------------------
D------------------3--2--7--5--------------------------------------3----
A------------------------5--3-------------------------------------------
E---0--0--0--0--0--------------0--0--0--0--0--0--0--0--0--0--0--0-------
                                                                        

                                                                        
E-----------------------------------------------------------------------
B-----------------------------------------------------------------------
G-----------------------------------------------------------------------
D---0--2-------------------------------------------------------3--0-----
A---------5--3--5p3-----------------------------------------------------
E--------------------5-----0--0--0--0--0--0--0--0--0--0--0--0-----------
                                                                        

                           play 4 times                                 
E-----------------------------------------------------------------------
B-----------------------------------------------------------------------
G-----------------------------------------------------------------------
D---2-------------------------------0h2-----------0h2--------------0----
A------5--3--5p3--------------------------------------------------------
E-----------------5--------0--0--0-------0--0--0----------0--0--0-------
                                                                        
[ Tab from: http://www.guitartabs.cc/tabs/o/overkill/rotten_to_the_core_tab.html ]
                                                                        
E-----------------------------------------------------------------------
B-----------------------------------------------------------------------
G---------------------------------5-------------------------------------
D---h2--------------0h2-----------5-----------0h2-----------0h2---------
A---------------------------------3-------------------------------------
E----------0--0--0-------0--0--0-----0--0--0-------0--0--0-------0------
                                                                        

                                                                        
E-----------------------------------|-----------------------------------
B-----------------------------------|-----------------------------------
G-----------------------------------|-----------------------------------
D------------3--0--2----------------|-----------------------------------
A---------------------5--3--5p3-----|-----------------------------------
E---0--0-------------------------5--|--------0--0--0--0--0--0--0--0-----
                                                                        

                                                                        
E-----------------------------------------------------------------------
B-----------------------------------------------------------------------
G------5-----------7-----------5-----------4----------------------------
D------5-----------7-----------3-----------2----------------------------
A------3-----------5----------------------------------------------------
E---0-----0--0--0-----0--0--0-----0--0--0-----0--0--0--0--0--0--0--0----
                                                                        

                                                                        
E-----------------------------------------------------------------------
B-----------------------------------------------------------------------
G------5-----------7-----------5-----------------------------5----------
D------5-----------7-----------5-----------------------------5----------
A------3-----------5-----------3-----------------------------3----------
E---0-----0--0--0-----0--0--0-----0--0--0--0--0--0--0--0--0--------0----
                                                                        

                                                                        
E-----------------------------------------------------------------------
B-----------------------------------------------------------------------
G---------7-----------5-----------4-----------------------------5-------
D---------7-----------3-----------2-----------------------------5-------
A---------5-----------------------------------------------------3-------
E---0--0-----0--0--0-----0--0--0-----0--0--0--0--0--0--0--0--0-----0----
                                                                        

                                           play riff 1 4 times then     
E---------------------------------------|-------------------------------
B---------------------------------------|-------------------------------
G---------7-----------5--5--5--7--7--7--|-------------------------------
D---------7-----------5--5--5--7--7--7--|--2----4-----------------------
A---------5-----------3--3--3--5--5--5--|--2----4-----------------------
E---0--0-----0--0--0--------------------|--0h---2--2--2--2--2--2--2-----
                                                                        

                                                                        
E-----------------------------------------------------------------------
B-----------------------------------------------------------------------
G-----------------------------------------------------------5-----------
D---------------------------2----4--------------------------5-----------
A---------------------------2----4--------------------------3-----------
E---2--2--2--2--2--2--2--2--0h---2--2--2--2--2--2--2--2--2-----0--0-----
                                                                        

                                                                        
E-----------------------------------------------------------------------
B-----------------------------------------------------------------------
G---4--------2----------------------------------------------------------
D---4--------2--2----4--------------------------------------------2-----
A---2--------0--2----4--------------------------------------------2-----
E------0--0-----0h---2--2--2--2--2--2--2--2--2--2--2--2--2--2--2--0-----
                                                                        

                                                                        
E-------------------------------------------------------|---------------
B-------------------------------------------------------|---------------
G----------------------------------5--------4--------2--|---------------
D-------4--------------------------5--------4--------2--|---------------
A-------4--------------------------3--------2--------0--|---------------
E---h---2--2--2--2--2--2--2--2--2-----0--0-----0--0-----|---------------
                                                                        

    play chorus                                           /             
E-----------------------------------------------------------------------
B-----------------------------------------------------------------------
G-----------------------------------------------------------------------
D-----------------------------------------------------------------------
A-----------------------------------------------------------------------
E-----------------------------------------------------------------------
                                                                        

    play riff 1                                              5 times    
E-----------------------------------------------------------------------
B-----------------------------------------------------------------------
G-----------------------------------------------------------------------
D-----------------------------------------------------------------------
A-----------------------------------------------------------------------
E-----------------------------------------------------------------------
                                                                        

                                                                        
E-----------------------------------------------------------------------
B-----------------------------------------------------------------------
G------------------------------------------------------5-----7----------
D------------------------------------------------------5--5--7----------
A------------------------------------------------------3--5--5----------
E---------------------------------------------------------3-----0--0----
                                                                        

                                                                        
E-----------------------------------------------------------------------
B-----------------------------------------------------------------------
G---4--------5--------7--------5--------5-----7--------4-----------5----
D---2--------3--------5--------3--------5--5--7--------2-----------3----
A---------------------------------------3--5--5-------------------------
E------0--0-----0--0-----0--0-----0--0-----3-----0--0-----0-----0-------
                                                                        

                                                                        
E-----------------------------------------------------------------------
B-----------------------------------------------------------------------
G---------7--------5--------5-----7--------4--------5--------7----------
D---------5--------3--------5--5--7--------2--------3--------5----------
A---------------------------3--5--5-------------------------------------
E---0--0-----0--0-----0--0-----3-----0--0-----0--0-----0--0-----0--0----
                                                                        

                                                                        
E------------------------------|----------------------------------------
B------------------------------|----------------------------------------
G---5-----------------5-----7--|-----9--------9-----------9--------9----
D---3-----------------5--5--7--|-----9--------9--------8--9--------9----
A---------------------3--5--5--|-----7--------7--------8--7--------7----
E------0--0--------------3-----|--------0--0-----0--0--6-----0--0-------
                                                                        

                                                                        
E-----------------------------------------------------------------------
B-----------------------------------------------------------------------
G------------9--------9-----------------------------------9--------9----
D---------8--9--------9--------8--8--------4--------5-----9--------9----
A---------8--7--------7--------8--8--------4--------5-----7--------7----
E---0--0--6-----0--0-----0--0--6--6--0--0--2--0--0--3--------0--0-------
                                                                        

                                                                        
E-----------------------------------------------------------------------
B-----------------------------------------------------------------------
G------------9--------9-----------9--------9----------------------------
D---------8--9--------9--------8--9--------9--------8--8--------4-------
A---------8--7--------7--------8--7--------7--------8--8--------4-------
E---0--0--6-----0--0-----0--0--6-----0--0-----0--0--6--6--0--0--2--0----
                                                                        

                                                                        
E-----------------------------------------------------------------------
B-----------------------------------------------------------------------
G------------9--------9-----------9--------9-----------9--------9-------
D------5-----9--------9--------8--9--------9--------8--9--------9-------
A------5-----7--------7--------8--7--------7--------8--7--------7-------
E---0--3--------0--0-----0--0--6-----0--0-----0--0--6-----0--0-----0----
                                                                        

                                                                        
E-----------------------------------------------------------------------
B-----------------------------------------------------------------------
G-----------------------------------------------------------------------
D------8--8--------4--------5-----------------------------8--------5----
A------8--8--------4--------5-----------------------------8--------5----
E---0--6--6--0--0--2--0--0--3-----------------------------6--0--0--3----
                                                                        

                                                                        
E-----------------------------------------------------------------------
B-----------------------------------------------------------------------
G-----------------------------------------------------------------------
D---------2-------------------------------------------------------------
A---------2-------------------------------------------------------------
E---0--0--0-------------------------------------------------------------
                                                                        



========================================================================
==            Created with a demo version of BUCKET O' TAB            ==
==              tablature creation software for Windows               ==
==                   http://www.his.com/~gse/bucket                   ==
========================================================================
Comments