Overkill - Rotten To The Core Chords & Tabs

 

Rotten To The Core Chords & Tabs

Overkill Chords & Tabs

Version: 1 Type: Bass Tab 0 ratings
1 star 2 stars 3 stars 4 stars 5 stars
comments

Rotten To The Core Bass Tab

Title:Rotten To The Core
Album:Feel The Fire
Artist:Overkill

RIFF1
G-------------------------------------------
D-------------------------------------------
A--7-77-7---7-77-7--7-77-7------------------
E--------6--------6-------6--65-0~3~55------

RIFF2
G-------------------------------------------
D-------------------------------------------
A--3--5--7-77-781087--3-5-7-77-781087-------
E---3------------------3--------------------
 ...Rotten to the core  ...Rotten to the core
[ Tab from: http://www.guitartabs.cc/tabs/o/overkill/rotten_to_the_core_btab.html ]
RIFF3
G-------------------------------------------
D-------------------------------------------
A--78--57--35--23--78--57--35--32--35--37---
E-------------------------------------------

RIFF4
G-------------------------------------------
D-------------------------------------------
A--7777777777-109797575353------------------
E-------------------------------------------

RIFF5
G-------------------------------------------
D-------------------------------------------
A--7777777777-5-7-7777777777----------------
E-------------------------------------------

~=Slide

For conne e'mail me at napalmripper@yahoo.com this is my first tab thanx any problems send me
Comments