Overkill - Horrorscope Chords & Tabs

 

Horrorscope Chords & Tabs

Overkill Chords & Tabs

Version: 2 Type: Tab 0 ratings
1 star 2 stars 3 stars 4 stars 5 stars
comments

Horrorscope Tab

Horrorscope
Overkill

   Opening                                                       
E||---------------------------|--------------------------|
B||---------------------------|--------------------------|
G||*--------------------------|--------------------------|
D||*--------------------------|--------------------------|
A||---0--2--3--2--x--2--x--3--|--0--2--3--2--x--5--x--6--|
D||---0--2--3--2--0--2--0--3--|--0--2--3--2--0--5--0--6--|


                                                        
--------------------------|---------------------------||
--------------------------|---------------------------||
--------------------------|--------------------------*||
--------------------------|--------------------------*||
--0--2--3--2--x--2--x--3--|--0--2--3--2--x--6--x--5---||
--0--2--3--2--0--2--0--3--|--0--2--3--2--0--6--0--5---||


Prelude:                                                      
-------------------------|--------------------------||
-------------------------|--------------------------||
*------------------------|-------------------------*||
*--0---------------------|-------------------6p-5--*||
---0----------5----------|--0--0/-------5----6p-5---||
---0/---6--5/------6p-5--|--0--0/-6--5/------6p-5---||


Verse:                                                         
----------------------------|---------------------------|
----------------------------|---------------------------|
*---------------------------|---------------------------|
*---------------------------|---------------------------|
---0--0--3--0--3/6----5--3--|--0--0--3--0--3/6--5--3----|
---0--0--3--0--3/6----5--3--|--0--0--3--0--3/6--5--3----|


                                                          Bridge:                      
---------------------------|---------------------------||----------------------|
---------------------------|---------------------------||----------------------|
---------------------------|--------------------------*||*---------------------|
---------------------------|--------------------------*||*---------------------|
--0--0--3--0--3/6----5--3--|--0--0--3--0--6--5--3--6---||---5------------------|
--0--0--3--0--3/6----5--3--|--0--0--3--0--6--5--3--6---||---5------------0--0--|

[ Tab from: http://www.guitartabs.cc/tabs/o/overkill/horrorscope_tab_ver_2.html ]
                                                                             
-----------------------|------------------------|--------------------------||
-----------------------|------------------------|--------------------------||
-----------------------|------------------------|-------------------------*||
-----------------------|--0---------------------|-------------------6--5--*||
--3----0--0--2----6----|--0----------5----------|--0--0/-------5----6p-5---||
--3----0--0--2----6----|--0/---6--5/------6p-5--|--0--0/-6--5/------6p-5---||


                                                                             
                                                  Chorus:
----------------------|------------------------||---------------------------|
----------------------|------------------------||---------------------------|
*---------------------|-----------------------*||*--------------------------|
*---------------------|-----------------------*||*--------------------------|
---5------------------|--3----0--0--2----6-----||---0--2--3--2--x--2--x--3--|
---5------------0--0--|--3----0--0--2----6-----||---0--2--3--2--0--2--0--3--|


                                                      
--------------------------|--------------------------|
--------------------------|--------------------------|
--------------------------|--------------------------|
--------------------------|--------------------------|
--0--2--3--2--x--5--x--6--|--0--2--3--2--x--2--x--3--|
--0--2--3--2--0--5--0--6--|--0--2--3--2--0--2--0--3--|


                             Interlude:                Solo over interlude:                         
---------------------------||------------------------||------------------------|
---------------------------||------------------------||------------------------|
--------------------------*||*----------------------*||*-----------------------|
--------------------------*||*--0----0----0----0----*||*-----------------------|
--0--2--3--2--x--6--x--5---||---0----0----0----0-----||---5~-----------5--5h6--|
--0--2--3--2--0--6--0--5---||---0----0----0----0-----||-------------7----------|


                                                             3x
--------------------|----------------------|-----------------||
--------------------|----------------------|-----------------||
--------------------|----------------------|----------------*||
--------------------|--------------------7-|----------------*||
---5-------------5--|------------5--8------|---8--7~---------||
--------------------|---------7------------|-----------------||
Comments