Overdue - You Chords & Tabs

 

You Chords & Tabs

Overdue Chords & Tabs

Version: 1 Type: Bass Tab 0 ratings
1 star 2 stars 3 stars 4 stars 5 stars
comments

You Bass Tab

artist:overdue
title:f**k you

submited by:dalewhite@lycos.co.uk

this is an awsome bass tab by me for my band overdue
enjoy
intro
g-------------
d-------------
a------3--5--- x4
e-5--3--------

[ Tab from: http://www.guitartabs.cc/tabs/o/overdue/you_btab.html ]
verse
g------------------
d------------------
a----------333--555 x4        
e-555--333---------

chorus
g-------------------------------------
d-------------------------------------
a------------------------------7-7-7-7 x1
e-9--77777-9--77777-9--77777----------
order of song
intro x4
verse x4
chorus x4
verse x4  (guitar does a solo)
chorus x4  "              "
verse x4
chorus x4
intro x4
Comments