Outlaws - Green Grass And High Tides Chords & Tabs

 

Green Grass And High Tides Chords & Tabs

Outlaws Chords & Tabs

Version: 7 Type: Tab 0 ratings
1 star 2 stars 3 stars 4 stars 5 stars
comments

Green Grass And High Tides Tab

song:Green Grass and High Tides by The Outlaws
tabbed by:Doug Bissett


this is the first solo in the song, its comes at 0:52

  -------------------------------------------------------------------|
  ----7-7------------------------------------------------------------|
  ----7-7-7h9-9p7-9-9p7---7------------------------------------------|
  -/9-------------------9---9p7--7-----------------------------------|
  -----------------------------9---9p7---9p7---9-7-----5/7-----5/7---|
  -------------------------------------9-----9-----5h7-----5h7-----7-|

this is the third solo in the song, it comes at 3:22

  -------------------------------------------------------------------|
  ---------7h8-7---7h8-8-8----7-7-7h8p7---7h8p7---7h8p7---7h8p7------|
  -9p7-9---------9----------------------9-------7-------9-------7----|
  -------------------------------------------------------------------|
  -------------------------------------------------------------------|
  -------------------------------------------------------------------|

  -------------------------------------------------------------------|
  -7h8p7-------------------------------------------------------------|
  -------------------------------------------------------------------|
  -------9---7h9p7-5h7p5-4~----4-5-4---4--------------4-5/7----5-7-9-|
  -----------------------------------7---5/7-7~---5-7----------------|
  -------------------------------------------------------------------|
                           quietly
  -------------------------------------------------------------------|
  -------------------------------------------10------10p7------------|
  -7-9~-9~-9~----9p7-rb(11)9p7h9-9~---7h9b11----9b11------9b11-------|
  -------------------------------------------------------------------|
  -------------------------------------------------------------------|
  -------------------------------------------------------------------|
[ Tab from: http://www.guitartabs.cc/tabs/o/outlaws/green_grass_and_high_tides_tab_ver_7.html ]
  -------------------------------------------------------------------|
  --------------------------------10------10p7-----------7b8r7b8-5---|
  -7h9-9p7---7-9p7---------7h9b11----9b11------9b11--7-9-------------|
  ---------9-------9-9-----------------------------------------------|
  -------------------------------------------------------------------|
  -------------------------------------------------------------------|

  -------------------------------------------------------------------|
  -------------------------------------------------------------------|
  -9\7-7\6-6\4-4\2-2/4-4/6-6h7h9-9-7h9h11-11-9h11h12-12-11h12h14-----|
  -------------------------------------------------------------------|
  -------------------------------------------------------------------|
  -------------------------------------------------------------------|

  -------------------------------------------------------------------|
  -----------------------------15-15p12--15-15-15p12-15-15-15p12-----|
  -12h14h16-14h16h18-16h18h19----------------------------------------|
  -------------------------------------------------------------------|
  -------------------------------------------------------------------|
  -------------------------------------------------------------------|

  -------------------------------------------------------------------|
  -15p12-15-15b17~(x8)--15p12-15p12-15-15b17~(x8)--15p12-15p12-15----|
  -------------------------------------------------------------------|
  -------------------------------------------------------------------|
  -------------------------------------------------------------------|
  -------------------------------------------------------------------|

  -------------------------------------------------------------------|
  -15b17~(x8)--15p12-------12-15-------12-15-------12-15-15-12-------|
  -------------------14b16-------14b16-------14b16-------------14-12-|
  -------------------------------------------------------------------|
  -------------------------------------------------------------------|
  -------------------------------------------------------------------|

  -=-----------------------------------------------------------------|
  -------------------------------------------------------------------|
  ----12-------------------------------------------------------------|
  -14----14-12----12-14-12-------------------------------------------|
  -------------14----------14-13-12-10-12-10-------------------------|
  -------------------------------------------12----------------------|

this is my first tab so it probably not 100% infact i know its not 100%, but whatever i 
and it was fun. Peace out
Comments