Outkast - The Whole World Chords & Tabs

 

The Whole World Chords & Tabs

Outkast Chords & Tabs

Version: 3 Type: Tab 0 ratings
1 star 2 stars 3 stars 4 stars 5 stars
comments

The Whole World Tab

this part is the siging in the chourus

e|----------------------|--------------|
b|----------------------|--------------|
g|--3 5~5~6^5 3-----3 --|--------------|
d|5-------------6 5---6-|--------------|
a|----------------------|-8^7~8^8^8^7~-|
E|----------------------|--------------|
[ Tab from: http://www.guitartabs.cc/tabs/o/outkast/the_whole_world_tab_ver_3.html ]
ending trumpet-like solo
(lots of off beats),echo

e|-------------------------------------|
b|-------------------------------------|
g|5-6----3-----5-6--3------5-6-3---565-|
d|---------5----------5----------3-----|
a|-------------------------------------|
E|-------------------------------------|

the rythem is hard to get, but keep trying.
Comments