Outkast - The Whole World Chords & Tabs

 

The Whole World Chords & Tabs

Outkast Chords & Tabs

Version: 1 Type: Bass Tab 0 ratings
1 star 2 stars 3 stars 4 stars 5 stars
comments

The Whole World Bass Tab

	A simple plus stylish song.
 
 Play this through the whole song, the amount of beats changes 
 through verse and chorus.


G:-------------------------------------------------
D:-------------------------------------------------
A:---------4-4-4-4---------------------------------
E:-2-2-2-2---------10-10-10-10-4-4-4-4-------------

variations might be

[ Tab from: http://www.guitartabs.cc/tabs/o/outkast/the_whole_world_btab.html ]
G:-------------------------------------------------
D:-------------------------------------------------
A:---------4-4-4-44--------------------------------
E:-2-2-2-22--------10-10-10-1010-4-4-4-4-----------

or

G:-------------------------------------------------
D:-------------------------------------------------
A:---------4-----44--------------------------------
E:-2-----22--------10-----1010-4-----4-------------


Comments