Outkast - Roses Chords & Tabs

 

Roses Chords & Tabs

Outkast Chords & Tabs

Version: 1 Type: Tab 0 ratings
1 star 2 stars 3 stars 4 stars 5 stars
comments

Roses Tab

   
-------------------------------------------------------------------------------
			     Roses - Outkast
-------------------------------------------------------------------------------
Tabbed by: SilentDeftone

Tuning: EADGBe

Okay, this is the jazzy little piano part in the beginning of the song.
Someone posted in Tab Talk requesting a transcription from a .jpg of sheet music,
so I transcribed it and decided to submit it as well.

The chords on top of the tab are chords that were notated in the bass clef.

~ = sustain note

   E~~~~~~~~~               Bmaj(b5)~~~~                 Am~
e|-------3~-0~------------|--------------------------------|
B|------------------------|--------------------------------|
G|-------------4-3-2-0----|--------2---4-5-4-3-2-0-----0---|
D|-0-2-5---------------2~~|----5-2---2-------------2-0---2-|
A|------------------------|--------------------------------|
E|------------------------|--------------------------------|
[ Tab from: http://www.guitartabs.cc/tabs/o/outkast/roses_tab.html ]
                           Gaug~~~~~~~~~~~~~~~~              Am~~
e|----------------------------|-3-2-0----------------------------|
B|----------------------------|-------3-------5-3----------------|
G|----------------------------|---------4-3-2-----4-3-2-0----2-4-|
D|-0--------------------------|---------------------------2------|
A|---1-0---------1---1---2----|----------------------------------|
E|-------3-0-3-----3---3------|----------------------------------|

                                  F~~~~Em~~~~    D~~~~~  Eb
e|----------3-5-3----------------------------|----------------|
B|-0-3--3-5-------5-3------------------------|-----3-----4-4--|
G|--------------------4-3-2-0-----2~~~-0~-2~-|-----------4-4--|
D|----------------------------2--------------|-5-4---4---4-4--|
A|-------------------------------------------|----------------|
E|-------------------------------------------|----------------|

I tried to tab with as accurate timing as I could, but you'll probably have to listen to the song.

Please rate this tab, and enjoy!
Comments