Outer Limits - The Rumor Chords & Tabs

 

The Rumor Chords & Tabs

Outer Limits Chords & Tabs

Version: 1 Type: Bass Tab 0 ratings
1 star 2 stars 3 stars 4 stars 5 stars
comments

The Rumor Bass Tab

   
to verses when Jacob and Danny sings:
G|-5--7----------------------------------------------|
D|-------7--3----------------------------------------|
A|---------------------------------------------------|
E|---------------------------------------------------|
[ Tab from: http://www.guitartabs.cc/tabs/o/outer_limits/the_rumor_btab.html ]
To chorus "Don't keep it going..."
G|-5555-7777-----------------------------------------|
D|----------7777-3333--------------------------------|
A|---------------------------------------------------|
E|---------------------------------------------------|

Solo from Danny at end
G|-5-77-9--------------------------------------------|
D|-------5-6-----------------------------------------|
A|----------6-7--------------------------------------|
E|---------------------------------------------------|

| /  slide up
| \  slide down
| h  hammer-on
| p  pull-off
| ~  vibrato
| +  harmonic
| x  Mute note
==========================================================
Comments