Outer Limits - Swing Chords & Tabs

 

Swing Chords & Tabs

Outer Limits Chords & Tabs

Version: 1 Type: Tab 0 ratings
1 star 2 stars 3 stars 4 stars 5 stars
comments

Swing Tab

   
-------------------------------------------------------------------------------
			     Swing- Outer Limits
-------------------------------------------------------------------------------
Tabbed by:jacksnow23
Email:Hockeyman203@aol.com

Tuning:EADGBe
[ Tab from: http://www.guitartabs.cc/tabs/o/outer_limits/swing_tab.html ]
e|---------------------------------------------------------------------------|
B|---------------------------------------------------------------------------|
G|-------------7777777777-9999999999-555555555-------------------------------|
D|--555555555--7777777777-9999999999-555555555-------------------------------|
A|--555555555--5555555555-7777777777-333322200-------------------------------|
E|--333333333----------------------------------------------------------------|
Not distorted. have echo. its a magical feel.
e|---------------------------------------------------------------------------|
B|---------------------------------------------------------------------------|
G|--------------------7---------7--------9-----9-----5----4------------------|
D|----5----------5------7---7-7---7----9-----9-----5----4--------------------|
A|------5----5-5----5-----5----------7-----7-----3----2-----0----------------|
E|--3------3-----------------------------------------------------------------|
Inturlude. Un distorted slide one every note
e|---------------------------------------------------------------------------|
B|---------------------------------------------------------------------------|
G|---------------------------------------------------------------------------|
D|-----------------7-5-4----9-7-5---5---5-------------754----9-7-5---5---5---|
A|-----5--3--2---5--------7-------3---3------5-3-2--5------7-------3---3-----|
E|--3--------------------------------------3---------------------------------|
Chorus
e|--------------------------------------------------------------+3-----------|
B|---------------------------------------------------------------------------|
G|-------------------5-5-5-5-5-5-5-5--------------5-5-5~~----------+0--------|
D|--7-7-7-7-7-7-7-7--5-5-5-5-5-5-5-5--7-7-7-7-7-7-5-5-5~~--------------------|
A|--7-7-7-7-7-7-7-7--3-3-3-3-3-3-3-3--7-7-7-7-7-7-3-3-3~~--------------------|
E|--5-5-5-5-5-5-5-5-------------------5-5-5-5-5-5----------15-\3-------+3-)-3|

| /  slide up
| \  slide down
| h  hammer-on
| p  pull-off
| ~  vibrato
| +  harmonic
| x  Mute note
========================================================================
Comments