Out Of Your Mouth - Thanks For Nothing Chords & Tabs

 

Thanks For Nothing Chords & Tabs

Out Of Your Mouth Chords & Tabs

Version: 1 Type: Bass Tab 0 ratings
1 star 2 stars 3 stars 4 stars 5 stars
comments

Thanks For Nothing Bass Tab

Band: Out Of Your Mouth
Song: Thanks For Nothing
CD: Draghdad
Record: ViK Records

Drop D tuning

Intro
G|------------|---------------|
D|------------|---------------|
A|------------|-------------3-|
D|------------|-0-2-0-2-0-2---|
[ Tab from: http://www.guitartabs.cc/tabs/o/out_of_your_mouth/thanks_for_nothing_btab.html ]
Chorus
G|---------------------------------------|
D|---------------------------------------|
A|-----------------------------2-2-2-2-2-|
E|-5-5-5-5-5-5-3-3-3-3-2-2-2-2-----------|

Post Chorus
G|---------------|
D|---------------|
A|------2-----2~-|
E|-4-4-5-4-4-5---|

Verse
G|---------------|
D|---------------|
A|-------------3-|
D|-0-2-0-2-0-2---|

Verse 2
G|-----------------|
D|-----------------|
A|-----------------|
D|-0-0--0--0-0--0~-|

Tabbed by Jess (aka rocker82)
Comments