Out Of Your Mouth - Music Chords & Tabs

 

Music Chords & Tabs

Out Of Your Mouth Chords & Tabs

Version: 1 Type: Bass Tab 0 ratings
1 star 2 stars 3 stars 4 stars 5 stars
comments

Music Bass Tab

   
Verse
G|-------------------|
D|-------------------|
A|-------------------|
E|-3-3-1/3---3-3-1/3-| 

Pause-

Chorus
G|-------------|
D|-------------|
A|-3-0---------|
E|-----3-1/3-3-| 

Verse
G|-------------------|
D|-------------------|
A|-------------------|
E|-3-3-1/3---3-3-1/3-| 
[ Tab from: http://www.guitartabs.cc/tabs/o/out_of_your_mouth/music_btab.html ]
Chorus
G|-------------|
D|-------------|
A|-3-0---------|
E|-----3-1/3-3-| 

Interlude  
G|-------------| 
D|-------------| 
A|-------------| 
E|-33-33-33-33-| x3

G|-----------------|
D|-----------------|
A|-----------------|
E|-33-33-33-33/12\-| x1

Then play the verse and chorus again

Thats it! fairly easy song. I hope you all like it!


Tabbed by Jess (Aka rocker82, tool)
Comments