Out Of Your Mouth - Kaboom Chords & Tabs

 

Kaboom Chords & Tabs

Out Of Your Mouth Chords & Tabs

Version: 1 Type: Bass Tab 0 ratings
1 star 2 stars 3 stars 4 stars 5 stars
comments

Kaboom Bass Tab

   
Band: Out Of Your Mouth
Song: Kaboom
CD: Draghdad
Record: ViK Records
Intro
G|-------|
D|-------|
A|-------|
E|-6--6~-|

Bridge
G|---------------------------|
D|---------------------------|
A|------------0------------1-|
E|-0-1-2-0-1-2--0-1-2-0-1-2--|
[ Tab from: http://www.guitartabs.cc/tabs/o/out_of_your_mouth/kaboom_btab.html ]
Verse
G|-----------------------------|
D|-----------------------------|
A|-----------------------------|
E|-0-0-2-0-0-2-3-0-0-2-0-0-2-3-|

Chorus
G|-----------------|
D|-----------------|
A|--------1------1-|
E|-0-0-1-2--0-1-2--|

Interlude
G|-------|
D|-------|
A|-------|
E|-6--6~-|

Outro
G|-------------------|
D|-------------------|
A|--------1--------1-|
E|-0-0-1-2--0-0-1-2--|

G|-------------------|
D|-------------------|
A|-------------4-3-2-|
E|-0-0-1-2-3-5-------|

awesome song!

Tabbed by Jess (Aka norin)
Comments