Out Of Your Mouth - Beautiful When Youre Mad Chords & Tabs

 

Beautiful When Youre Mad Chords & Tabs

Out Of Your Mouth Chords & Tabs

Version: 1 Type: Bass Tab 0 ratings
1 star 2 stars 3 stars 4 stars 5 stars
comments

Beautiful When Youre Mad Bass Tab

   
Band: Out Of Your Mouth
Song: Beautiful When You're Mad
CD: Draghdad
Record: ViK Records

Intro
G|-----|
D|-----|
A|-----|
E|-2-1-|

Verse 1
G|---------------|
D|---------------|
A|---------------|
E|-3-3-3-3---2h1-|

Chorus
G|--------------------------------------------|
D|--------------------------------------------|
A|--------------------------------------------|
E|-2-0-0-0-0-0-0-0-3-3-3-3-3--2-0-2-0-2-0-2-0-|
[ Tab from: http://www.guitartabs.cc/tabs/o/out_of_your_mouth/beautiful_when_youre_mad_btab.html ]
Verse 2
G|---------------|
D|---------------|
A|-3-1-3/5\3-1-3-|
E|---------------|

Interlude
G|-----------------------------------------|
D|-----------------------------------------|
A|-----------5-4-3-0-----------5-4-5-4-3-0-|
E|--0--3--5-----------0--3--5--------------|

G|-------------------------|
D|-------------------------|
A|-----------5-4-3-0-------|
E|--0--3--5-----------0~~~-|

ok, i think thats it.

Tabbed by Jess (Aka norin)
Comments