Out Of The Blue - Maximum Love Chords & Tabs

 

Maximum Love Chords & Tabs

Out Of The Blue Chords & Tabs

Version: 1 Type: Tab 0 ratings
1 star 2 stars 3 stars 4 stars 5 stars
comments

Maximum Love Tab

   
from:craigkelly722@hotmail.com (craig)
subject:tab:maximum love

this is easy keep the strumming slow

intro:
[ Tab from: http://www.guitartabs.cc/tabs/o/out_of_the_blue/maximum_love_tab.html ]
E-|-0-x-x-x-x-0-0-x-x-x-x-0-0-x-x-x-x-0-0
B-|-0-x-x-x-x-0-0-x-x-x-x-0-0-x-x-x-x-0-0
G-|-0-x-x-x-x-0-0-x-x-x-x-0-0-x-x-x-x-0-0  repeat x2
D-|-7-x-x-x-x-7-5-x-x-x-x-5-3-x-x-x-x-3-5
A-|-7-x-x-x-x-7-5-x-x-x-x-5-3-x-x-x-x-3-5
E-|-5-x-x-x-x-5-3-x-x-x-x-3-1-x-x-x-x-1-3

verse 1:

E-|-2---------------
B-|---3--------2----
G-|-----2--------2--    x4
D-|---------------2-
A-|-----------------
E-|-----------------

chorus:
(SAME AS INTRO x4)
Comments