Ours - Sometimes Chords & Tabs

 

Sometimes Chords & Tabs

Ours Chords & Tabs

Version: 6 Type: Tab 0 ratings
1 star 2 stars 3 stars 4 stars 5 stars
comments

Sometimes Tab

   
Author/Artist: Ours
Title: Sometimes
Album: Distorted Lullabies
Transcribed by: gremlin
Email: creeker1@hotmail.com

Standard tuning
  
  Intro (Light Dist)                               
-|--------------------
-|--------------------
-|--------------------
-|---9--9---7-7--5----
-|--10-10---9-9--7----
-|0------ 0-----------
                                                                              
  Main Riff (Heavy Dist)
-|-2-2-2--3--2--0--0---
-|-3-3-3--3--3--0--0---
-|-2-2-2--2--2--0--0---
-|-0-0-0--0--0-----2---
-|-----------------2---
-|-----------------0---

  Verse (Clean)
[ Tab from: http://www.guitartabs.cc/tabs/o/ours/sometimes_tab_ver_6.html ]
  (Em)      (C)      (G)     (C5)
-|------------------------------------
-|-----0---------1-------0--------3---
-|-------0---------0-------0--------4-
-|-------------2----------------4-----
-|---2-------3---------2------2-------
-|-0-----------------3----------------

  Solo
-|-------------------------------------------------
-|-13-13-13-12---12-12-12-10---10\12-10-8-7-8-10-12
-|--x--x--x--x----x--x--x--x----x--x--x-x-x-x--x--x
-|-10-10-10--9----9--9--9--7----7\-9--7-5-4-5--7--9
-|-------------------------------------------------
-|-------------------------------------------------

  Bridge(x2)
    C    G    D   
-|-0-0--3-3--3-3--3-3------
-|-1-1--3-3--2-2--3-3------
-|-0-0--0-0--3-3--0-0------
-|-2-2--0-0--0-0--0-0------
-|-3-3--2-2-------2-2------
-|------3-3-------3-3------

thanks for the help willy
Comments