Ours - Sometimes Acoustic Chords & Tabs

 

Sometimes Acoustic Chords & Tabs

Ours Chords & Tabs

Version: 1 Type: Tab 0 ratings
1 star 2 stars 3 stars 4 stars 5 stars
comments

Sometimes Acoustic Tab

   
Ours - Sometimes
Tabbed by: Alvin Eichholz

Intro:


E|--------------------------| x2
B|--------------------------|
G|--------------------------|
D|------9--9-----7-7----7-7-|
A|------10-10----9-9----5-5-|
E|---0---------0------0-----|


Chords:
[ Tab from: http://www.guitartabs.cc/tabs/o/ours/sometimes_acoustic_tab.html ]
Asus2   002200
?       002210
Db5     032210


Verse:


E|--------------------------|
B|-----------------------3--|
G|-----9-----7-----7--------|
D|---9-----7-----5-----4----|
A|-7-----5-----3-----2------|
E|--------------------------|


This is all i know. Hopefully someone will add the rest.
Comments