Ours - Safe From The Worms Chords & Tabs

 

Safe From The Worms Chords & Tabs

Ours Chords & Tabs

Version: 2 Type: Tab 0 ratings
1 star 2 stars 3 stars 4 stars 5 stars
comments

Safe From The Worms Tab

   
======================================================================
this song is from Ours and is very rare. i doubt you've heard it but if
you are a fan you'll know what i'm talking about. it's a very beautiful
song. hope you like it! :)
======================================================================

song: safe from the worms
artist: Gnecco, Jimmy
band: Ours

 stadard tuning:
  E, B, G, D, A, E

E:--------2---2------0---0-----|
B:--------2---2------5---5-----|
G:--------2---2------3---3-----|
D:---0--0---0---0--0---0---0---|
A:-----------------------------|
E:-----------------------------|
 repeat this as much as necessary
[ Tab from: http://www.guitartabs.cc/tabs/o/ours/safe_from_the_worms_tab_ver_2.html ]
E:---0---------------12----------10--|
B:---7---------------12----------10--|
G:---7---------------12----------10--|
D:---5----------------x----------x---|
A:---0----------------x----------x---|
E:---x----------------x----------x---|
strum ^above    strum ^ above  strum^above
 five times        four times   three times


solo:

E:--14~15~14~15~14----9---7----|
B:-----------------------------|
G:-----------------------------|
D:-----------------------------|
A:-----------------------------|
E:-----------------------------|
 repeat as much as necessary
and then.....
E:--14~15~14~15~14~------------|
B:-----------------------------|
G:-----------------------------|
D:-----------------------------|
A:-----------------------------|
E:-----------------------------|


 and then finish it off with the first tab.....
  that's pretty much the whole song.. :) i'm not
too sure of some of it but it's the best i know!
Comments