Ours - Here Is The Light Chords & Tabs

 

Here Is The Light Chords & Tabs

Ours Chords & Tabs

Version: 4 Type: Tab 0 ratings
1 star 2 stars 3 stars 4 stars 5 stars
comments

Here Is The Light Tab

-email me if changes need to be done (which is most likely) Zachcomp86@home.com
-off of "Distorted Lullabies"

Intro part thingy
e|--0-0-0-0-0-0-0------x-x-x-------|
B|--0-1-0-1-0-1-0------0-0-0-------|
G|--2-2-2-2-2-2-2------0-0-0-------|
D|--2-2-2-2-2-2-2------2-2-2-------|
A|--0-0-0-0-0-0-0------2-2-2-------|
E|---------------------0-0-0-------|
[ Tab from: http://www.guitartabs.cc/tabs/o/ours/here_is_the_light_tab_ver_4.html ]
Verse part                           first chord may be this too
e|--x-x-x-x------x-x-x-x-----------|      ----x-----|
B|--x-x-x-x------x-x-x-x-----------|      ----x-----|
G|--2-2-2-2------0-0-0-0-----------|      ----2-----|
D|--4-4-4-4------2-2-2-2-----------|      ----4-----|
A|--3-3-3-3------2-2-2-2-----------|      ----3-----|
E|--0-0-0-0------0-0-0-0-----------|      ----2-----|
    *not sure about first chord

Bridge/softer part
e|--x-x-x---x-x-x------x-x-x-------|
B|--1-1-1---3-3-3------1-0-1-------|
G|--0-0-0---0-0-0------2-2-2-------|
D|--2-2-2---0-0-0------2-2-2-------|
A|--3-3-3---2-2-2------0-0-0-------|
E|----------3-3-3------0-0-0-------|
                         ^it sometimes changes up like that

Jimmy Gnecco is the next Jeff Buckley
Comments