Ours - Dizzy Chords & Tabs

 

Dizzy Chords & Tabs

Ours Chords & Tabs

Version: 2 Type: Tab 0 ratings
1 star 2 stars 3 stars 4 stars 5 stars
comments

Dizzy Tab

   
Ours - Dizzy
Written By Jimmy Gnecco
Tabbed By Corbin Hicks (stratocaster_1998@yahoo.com)

This is completely my interpretations...I'm sure a lot is missing/wrong, but,
I think it's a great start.

Please, PLEASE note that I never emphasize timing on my tabs, it is a must that you listen
to the tune to figure out where the notes go.  It's too much of a hassle to make tabs, and
Even much worse to spend time on timing, and it's not too hard to pick it up yourself, so
Ciao!

-Corbin

Opening Chords/Chorus:
---------------------

Bm, G, D, A


Verse:
-----

E|--5---5----4---4--------|
B|--5---5----3---3--------|
G|----6---6----2---2------|
D|------------------------|
A|------------------------|
E|------------------------|


First Solo:
----------

E|------------------------------------|
B|------------------------------------|
G|------------------------------------|
D|------------------------------------|
A|--2--2-4-5-5/7--5-7--7/9--9-7-------|
E|------------------------------------|


Second Solo:
-----------

E|----------------------------------|
B|----------------------------------|
G|----------------------------------|
D|--14h16-14h16-14h16-14h16-16p14---|
A|----------------------------------|
E|----------------------------------|

E|----------------------------------|
B|----------------------------------|
G|----------------------------------|
D|--14h16-14h16-14h16-14h16-16p14---|
A|----------------------------------|
E|----------------------------------|
[ Tab from: http://www.guitartabs.cc/tabs/o/ours/dizzy_tab_ver_2.html ]
E|---------------------------------------|
B|---------------------------------------|
G|---------------------------------------|
D|--14h16-14h16-14h16-14h16-16p14--------|
A|----------------------------------16---|
E|---------------------------------------|

E|----------------------------------|
B|----------------------------------|
G|----------------------------------|
D|--14h16-14h16-14h16-14h16-16p14---|
A|----------------------------------|
E|----------------------------------|

E|----------------------------------|
B|----------------------------------|
G|----------------------------------|
D|--14h16-14h16-14h16-14h16-16p14---|
A|----------------------------------|
E|----------------------------------|

E|---------------------------------------|
B|---------------------------------------|
G|---------------------------------------|
D|--14h16-14h16-14h16-14h16--16br--------|
A|---------------------------------------|
E|---------------------------------------|

E|---------------------------------|
B|---------------------------------|
G|--------------------------16-----|
D|--14h16-14h16-14h16-14h16----17--|
A|---------------------------------|
E|---------------------------------|

E|---------------------------------|
B|---------------------------------|
G|--------------------------18-----|
D|--14h16-14h16-14h16-14h16----17--|
A|---------------------------------|
E|---------------------------------|

E|---------------------------------|
B|---------------------------------|
G|--------------------------19-----|
D|--14h16-14h16-14h16-14h16----17--|
A|---------------------------------|
E|---------------------------------|
Comments