Our Last Night - Stay Chords & Tabs

 

Stay Chords & Tabs

Our Last Night Chords & Tabs

Version: 1 Type: Tab 0 ratings
1 star 2 stars 3 stars 4 stars 5 stars
comments

Stay Tab

   
-------------------------------------------------------------------------------
                             Stay - Our Last Night
-------------------------------------------------------------------------------
Tabbed by: Kristyn Lee
E-mail: spot_the_village_loony_836@hotmail.com

Tuning:  standard 7 string

Intro/verse
e|----------------------------------------|
B|----------------------------------------|
G|----------------------------------------|
D|----------------------------------------|
A|---7-7-7/8--3-3-3-3-3-3-3-3-3-3-3-3-----|
E|---3-3-3/5--5-5-5-3-5-5-5-3-5-5-5-3-----|
B|---3-3-3/5--0-0-0-0-0-0-0-0-0-0-0-0-----|

 "all along it was a fever..."
e|----------------------------------------|
B|----------------------------------------|
G|----------------------------------------|
D|----------------------------------------|
A|---7-7-7/8--3-3-3-3-3-3-3-3-3-3-3-3-----|
E|---3-3-3/5--5-5-5-3-5-5-5-3-5-5-5-3-----|
B|---3-3-3/5--0-0-0-0-0-0-0-0-0-0-0-0-----|

 "a cold-sweat hot-headed believer..."
e|----------------------------------------|
B|----------------------------------------|
G|----------------------------------------|
D|----------------------------------------|
A|---7-7-7/8--3-3-3-3-3-3-3-3-3-3-3-3-----|
E|---3-3-3/5--5-5-5-3-5-5-5-3-5-5-5-3-----|
B|---3-3-3/5--0-0-0-0-0-0-0-0-0-0-0-0-----|

 "I threw my hands in the air I said show me something..."
e|----------------------------------------|
B|----------------------------------------|
G|----------------------------------------|
D|----------------------------------------|
A|---7-7-7/8--3-3-3-3-3-3-3-3-3-3-3-3-----|
E|---3-3-3/5--5-5-5-3-5-5-5-3-5-5-5-3-----|
B|---3-3-3/5--0-0-0-0-0-0-0-0-0-0-0-0-----|

 "she said if you dare come a little closer..."
e|----------------------------------------|
B|----------------------------------------|
G|----------------------------------------|
D|----------------------------------------|
A|---7-7-7/8--3-3-3-3-3-3-3-3-3-3-3-3-----|
E|---3-3-3/5--5-5-5-3-5-5-5-3-5-5-5-3-----|
B|---3-3-3/5--0-0-0-0-0-0-0-0-0-0-0-0-----|

  "round and around and around and around we go..."
e|-------------------------------------------|
B|-------------------------------------------|
G|-------------------------------------------|
D|-------------------------------------------|
A|---8-8-8-8-5-5-5-5-3-3-3-3-3-3-3-3---------|
E|---8-8-8-8-5-5-5-5-5-5-5-3-5-5-5-3---------|
B|---8-8-8-8-5-5-5-5-0-0-0-0-0-0-0-0---------|
   2nd guitar
e|--------------------------------------------------------------------------------|
B|---13------13-----13----15----15----15----13------13-----13-----13-----13-------|
G|-----14------14-----14----14----14-----14---14------14-----14-----14-----14-----|
D|--------15-----15-----------15----15-----------14------14-----14-----14----14---|
A|--------------------------------------------------------------------------------|
E|--------------------------------------------------------------------------------|
B|--------------------------------------------------------------------------------|
  "oh now, tell me now, tell me now, tell me now you know..."
e|----------------------------------------|
B|----------------------------------------|
G|---------------------------5-5-5-5------|
D|-------------------5-5-5-5-5-5-5-5------|
A|---8-8-8-8-5-5-5-5-5-5-5-5-5-5-5-5------|
E|---8-8-8-8-5-5-5-5-3-3-3-3-3-3-3-3------|
B|---8-8-8-8-5-5-5-5----------------------|

  2nd guitar
e|--------------------------------------------------------------------------------|
B|---13-----13----13---15----15-----15----12-----12------12----13-----13------13--|
G|-----14-----14----14---14----14-----14----14-----14-----14----14-----14--14-----|
D|-------15-----15---------15----15------------14-----14----14----14-----14-------|
A|--------------------------------------------------------------------------------|
E|--------------------------------------------------------------------------------|
B|--------------------------------------------------------------------------------|


    "not really sure how to feel about it, something in the way you move...."
e|----------------------------------------------------------------|
B|----------------------------------------------------------------|
G|---5----------------7-------------------------------------------|
D|---5----------------7-----------10------------------------------|
A|---3----------------5-----------x--------------------12---------|
E|---3----------------5-----------8--------------------8----------|
B|---3----------------5-----------0--------------------8----------|

 "makes me feel like I can't live without you, it takes me all the way, i want you to stay..."
e|----------------------------------------------------|
B|----------------------------------------------------|
G|---5~--------------7~-------------------------------|
D|---5~--------------7~----------10~------------------|
A|---3~--------------5~-----------x------------12~----|
E|---3~--------------5~-----------8~------------8~----|
B|---3~--------------5~-----------0~------------8~----|


e|------------------------------------------------------------------------|
B|---131313131313-1515-101010101010-88--10101010101088-101010101010-88----|
G|---121212121212-1414-9-9-9-9-9-9--99--9-9-9-9-9-9--99-9-9-9-9-9-9-99----|
D|------------------------------------------------------------------------|
A|------------------------------------------------------------------------|
E|------------------------------------------------------------------------|
B|------------------------------------------------------------------------|

Distortion

 "It's not much of a life that you're living..."
e|-----------------------------------------------------------------------------|
B|-----------------------------------------------------------------------------|
G|-----------------------------------------------------------------------------|
D|-----------------------------------------------------------------------------|
A|---7-7~----8-8~--------------------------------------------5h7---------------|
E|---3-3~----5-5~----------------7h8---------------------------------7h8\5-----|
B|---3-3~----5-5~---0-0~--0-0-0-------0--0-0--00-000-0-0-0------00-------------|

 "It's not something you just take, it's given..."
e|---------------------------------------------------------------------------|
B|---------------------------------------------------------------------------|
G|---------------------------------------------------------------------------|
D|--------------------------------------------------------------10-9---------|
A|---7-7~----8-8~---------------------------------------------------10-------|
E|---3-3~----5-5~----------------7h8-----------------------------------------|
B|---3-3~----5-5~---0-0~--0-0-0-------0--0-0--00-000-0-0-0-------------------|
[ Tab from: http://www.guitartabs.cc/tabs/o/our_last_night/stay_tab.html ]
 "round and around and around and around we go..."
e|------------------------------------------------------------------------------|
B|------------------------------------------------------------------------------|
G|------------------------2------2----------------------------------------------|
D|-----7-10---7-10-----3------3------7-7-7-7-7-7-7-7-7-9-9-9--------------------|
A|---8------8--------5------5--------x-x-x-x-x-x-x-x-x-x-x-x--------------------|
E|-----------------------------------5-5-5-5-5-5-5-5-5-7-7-7--------------------|
B|------------------------------------------------------------------------------|

 "oh now, tell me now, tell me now, tell me now you know..."
e|---------------------------------------------------------------|
B|---------------------------------------------------------------|
G|-----------------------2------2--------------------------------|
D|-----7-10---7-10----3------3------9~~-9/10-1010---10-----------|
A|---8------8-------5------5---------x---x-x--x-x----x-----------|
E|-----------------------------------7~~-7/8--8-8--0-8-----------|
B|-------------------------------------------------0-------------|

Heavy chorus

 "Not really sure how to feel about it, something in the way you move..."
e|------------------------------------------------------------------|
B|------------------------------------------------------------------|
G|------------------------------------------------------------------|
D|---55555555-77777777-1010101010101010-----------------------------|
A|---33333333-55555555-x-x-x-x-x-x-x-x----121212121212122-----------|
E|---33333333-55555555-8-8-8-8-8-8-8-8----8-8-8-8-8-8-8-8-----------|
B|---33333333-55555555-0-0-0-0-0-0-0-0----8-8-8-8-8-8-8-8-----------|

 "makes me feel like I can't live without you, it takes me all the way..."
e|------------------------------------------------------------------|
B|------------------------------------------------------------------|
G|------------------------------------------------------------------|
D|---55555555-77777777-1010101010101010-----------------------------|
A|---33333333-55555555-x-x-x-x-x-x-x-x----121212121212122-----------|
E|---33333333-55555555-8-8-8-8-8-8-8-8----8-8-8-8-8-8-8-8-----------|
B|---33333333-55555555-0-0-0-0-0-0-0-0----8-8-8-8-8-8-8-8-----------|

2nd guitar riff
Fast picking
e|-------------------------------------------------------------------------|
B|------17-------18--------------------------------------------------------|
G|-------------------------17----------14----------------------------------|
D|-------------------------------------------------------------------------|
A|-------------------------------------------------------------------------|
E|-------------------------------------------------------------------------|
B|-------------------------------------------------------------------------|

  "I want you to stay..."
e|---------------------------------------------------------------------|
B|---------------------------------------------------------------------|
G|------------------------55555577-------------------------------------|
D|------------------------77777777-777777557777775577777755------------|
A|---7~-----8-----3~---------------777777777777777777777777------------|
E|---3~-----5-----5~---------------------------------------------------|
B|---3~-----5-----0~---------------------------------------------------|

  "the reason i hold on..."
e|---------------------------------------------------------------------------------|
B|---------------------------------------------------------------------------------|
G|---14141414141414141414141414141414----------------------------------------------|
D|---x-x-x-x-x-x-x-x-x-x-x-x-x-x-x-x-----10101010101010101010101010101010----------|
A|---12121212121212121212121212121212--x-x-x-x-x-x-x-x-x-x-x-x-x-x-x-x-------------|
E|----------------------------------------8-8-8-8-8-8-8-8-8-8-8-8-8-8-8-8----------|
B|---------------------------------------------------------------------------------|

e|-------------------------------------------------------------------------------|
B|-------------------------------------------------------------------------------|
G|--------------------------------------------------------1212121212121212-------|
D|---121212121212121212121212121212121212121212121212x-x-x-x-x-x-x-x-------------|
A|---x-x-x-x-x-x-x-x-x-x-x-x-x-x-x-x-x-x-x-x-x-x-x-x-x-x1010101010101010---------|
E|---101010101010101010101010101010101010101010101010----------------------------|
B|-------------------------------------------------------------------------------|

  "cause I need this hole gone..."
e|------------------------------------------------------------------------------|
B|------------------------------------------------------------------------------|
G|---1414141414141414141414141414141417171717171717171717171717171717-----------|
D|---x-x-x-x-x-x-x-x-x-x-x-x-x-x-x-x-x-x-x-x-x-x-x-x-x-x-x-x-x-x-x-x------------|
A|---1212121212121212121212121212121215151515151515151515151515151515-----------|
E|------------------------------------------------------------------------------|
B|------------------------------------------------------------------------------|

e|-----------------------------------------------------------------------------|
B|-----------------------------------------------------------------------------|
G|---1919191919191919191919191919191919191919191919191919191919191919^^--------|
D|---x-x-x-x-x-x-x-x-x-x-x-x-x-x-x-x-x-x-x-x-x-x-x-x-x-x-x-x-x-x-x-x-----------|
A|---1717171717171717171717171717171717171717171717171717171717171717^^--------|
E|-----------------------------------------------------------------------------|
B|-----------------------------------------------------------------------------|

 "funny you're the broken one..."
e|--------------------------------------------------------------------------|
B|--------------------------------------------------------------------------|
G|--------------------------------------------------------------------------|
D|---------------------------------------------7777-------------------------|
A|---------------------7777-------------------------------------------------|
E|--------------------------------------------------------------------------|
B|---5-5-5-5-5-5-5-5--------8-8-8-8-8-8-8-8---------------------------------|
       .   .   .   .                .   .   .   .

e|---------------------------------------------------------------------------|
B|---------------------------------------------------------------------------|
G|---------------------------------------------------------------------------|
D|---------------------------------------------------------------------------|
A|---------------------------------------------------------------------------|
E|------------------------------------------------8888-----------------------|
B|---12--0-0-0-0-0-0-0-0-0-0-00-10-0-0-0-0-0-0-------------------------------|
           .   .   .   .   .  ..     .   .   .
 "cause when you never see the light..."
e|----------------------------------------------------------------------|
B|----------------------------------------------------------------------|
G|----------------------------------------------------------------------|
D|---------------------------------------------7777---------------------|
A|---------------------7777---------------------------------------------|
E|--------------------------------------------------10101010-10101010---|
B|---5-5-5-5-5-5-5-5--------8-8-8-8-8-8-8-8---------10101010-10101010---|
       .   .   .   .        .   .   .   .

Repeat heavy chorus

I'm too lazy to tab the solo

***********************************

| /   slide up
| \   slide down
| h   hammer-on
| p   pull-off
| ~   vibrato
| +   harmonic
| x   Mute note
| b   Bend
| pb  Pre-bend
| br  Bend release
| pbr Pre-bend release
| brb Bend release bend

************************************
Comments