Our Last Night - Skyfall Chords & Tabs

 

Skyfall Chords & Tabs

Our Last Night Chords & Tabs

Version: 1 Type: Bass Tab 0 ratings
1 star 2 stars 3 stars 4 stars 5 stars
comments

Skyfall Bass Tab

Our Last Night - Skyfall


Verse

G|--------|--------|--------|--------|--------|--------|--------|---------|
D|-9------|--------|-9------|--------|-9------|--------|--------|---------|
A|----10--|7-------|----10--|7-------|----10--|7-----5-|4-------|/9-------|
E|--------|--------|--------|--------|--------|--------|--------|-----2-2-|

Chorus
|----------|----------|----------|--------|
|----------|----------|----------|--------|
|2-22-2-2-0|----------|---------5|4-4-----|
|----------|3-33-3-3-2|0-00-0-0--|----22--|

Var:
|----------|----------|----------|-----------|
|----------|----------|----------|-----------|
|2-22-2-2-0|----------|---------5|4-44-/9----|
|----------|3-33-3-3-2|0-00-0-0--|--------2--|

Bridge:
|-----------|-----------|-----------|-----------|-----------|
|--45-2--22-|--45-2-222-|--45-2-222-|--45-2-222-|--45-2-222-|
|2------2---|2----------|2------2---|2------2---|2------2---|
|-----------|-----------|-----------|-----------|-----------|

"You can take my name"
|-----------|------------|--------|
|-----------|------------|--------|
|4-4-444-/9-|-9--9--9--9-|--------|
|-----------|------------|2-2-2-2-|

Chorus

|----------|----------|----------|-----------|
|----------|----------|----------|-----------|
|2-22-2-2-0|----------|---------5|4-44/00----|
|----------|3-33-3-3-2|0-00-0-0--|--------2--|
[ Tab from: http://www.guitartabs.cc/tabs/o/our_last_night/skyfall_btab.html ]
|----------|----------|----------|---------|
|----------|----------|----------|---------|
|2-22-2-2-0|----------|---------5|4-44-----|
|----------|3-33-3-3-2|0-00-0-0--|----22---|

Bridge
|--------|--------|--------|--------|--------|--------|--------|--------|
|--------|--------|--------|--------|--------|--------|--------|--------|
|2-------|--------|2-------|--------|2-------|--------|2-------|--------|
|--------|--------|--------|--------|--------|--------|--------|--------|

"Where you go I go"

|-----------|---------|--------|-------|
|2-22--2-2-4|5-55-5555|--------|-------|
|-----2-----|---------|0-011-2-|2-222-0|
|-----------|---------|--------|-------|

|----------|-------------|---------|--------------------|
|----------|-----0h2-2-20|---------|--------------------|
|----------|-------------|4-4-44-4-|0/9-9-9-9-9---------|
|3-33-3-3-2|0-00---------|---------|------------2-2-2-2-|

Chorus
|----------|----------|----------|-----------|
|----------|----------|----------|-----------|
|2-22-2-2-0|----------|---------5|4-44-/9----|
|----------|3-33-3-3-2|0-00-0-0--|--------22-|

|----------|----------|----------|--------------|
|----------|----------|----------|--------------|
|2-22-2-2-0|----------|---------5|4-44-/9-9-9-9-|
|----------|3-33-3-3-2|0-00-0-0--|--------------|

|----------|----------|----------|-----------|
|----------|----------|----------|-----------|
|2-22-2-2-0|----------|---------5|4-44----/9-|
|----------|3-33-3-3-2|0-00-0-0--|-----22----|


|----------|----------|----------|--------|-------|
|----------|----------|----------|--------|-------|
|2-22-2-2-0|----------|----------|--------|2------|
|----------|3-33-3-3-2|0---------|2-------|-------|
Comments