Our Last Night - Recovery Chords & Tabs

 

Recovery Chords & Tabs

Our Last Night Chords & Tabs

Version: 1 Type: Tab 0 ratings
1 star 2 stars 3 stars 4 stars 5 stars
comments

Recovery Tab

   
                                               Recovery - Our Last Night


Tuning: C# G# C# F# A# D#
Tempo= 200 bpm


Lead Guitar



      E  E  E  E  E  E  E  E     E  E  E  E  E  E  E  E   
D#||--------------------------|--------------------------|
A#||--------------------------|--------------------------|
F#||--7--7--7--L--7--7--7--7--|--L--7--7--L--7--7--------|
C#||--7--7--7--L--7--7--7--7--|--L--7--7--L--7--7-----3--|
G#||--5--5--5--L--5--5--5--5--|--L--5--5--L--5--5-----3--|
C#||--------------------------|-----------------------3--|


  E  E  E  E  E  E  E  E     E  E  E  E  E  E  E  E   
--------------------------|--------------------------|
--------------------------|--------------------------|
--------------------------|-----------------------9--|
--L--3--3--3--3--3--3--5--|--L--5--5--5--5--5--5--x--|
--L--3--3--3--3--3--3--5--|--L--5--5--5--5--5--5--7--|
--L--3--3--3--3--3--3--5--|--L--5--5--5--5--5--5-----|


   E   E   E   E   E   E   E   E      E   E   E   E   E   E  E  E   
----------------------------------|--------------------------------|
----------------------------------|--------------------------------|
--10--10--10--10--10--10--10--10--|--10--10--10--10--10--10--------|
---x---x---x---x---x---x---x---x--|---x---x---x---x---x---x-----8--|
---8---8---8---8---8---8---8---8--|---8---8---8---8---8---8-----8--|
----------------------------------|-----------------------------8--|


  E  E  E  E  E  E  E  E     E  E  E  E  E  E  E   E   
--------------------------|-----------------------10--|
--------------------------|---------------------------|
--------------------------|---------------------------|
--L--8--8--8--8--8--8--5--|--L--5--5--5--5--5--5------|
--L--8--8--8--8--8--8--5--|--L--5--5--5--5--5--5------|
--L--8--8--8--8--8--8--5--|--L--5--5--5--5--5--5------|


  E  E   E   E  E   E   E  E      E   E  E   E   E  E   E   E   
--L--L---L--10--L---L--10--L--|---L--10--L---L--10--L---L--13--|
-----8---L---L--8---L---L--8--|---L---L--8---L---L--8---L---L--|
--------10---L--L--10---L--L--|--10---L--L--10---L--L--10---L--|
------------------------------|--------------------------------|
------------------------------|--------------------------------|
------------------------------|--------------------------------|


  E   E   E   E   E   E   E   E     E   E   E  E  E  E  E  E   
--L----------13--------------10--|--L--10--10--8--L--8--8-----|
--L--10---L---L--10---L--10---8--|--L---8---8--8--L--8--8-----|
--L---L--12---L---L--12----------|-------------------------9--|
---------------------------------|-------------------------x--|
---------------------------------|-------------------------7--|
---------------------------------|----------------------------|


   E   E   E   E   E   E   E   E      E   E   E   E   E   E  E  E   
----------------------------------|--------------------------------|
----------------------------------|--------------------------------|
--10--10--10--10--10--10--10--10--|--10--10--10--10--10--10--------|
---x---x---x---x---x---x---x---x--|---x---x---x---x---x---x-----8--|
---8---8---8---8---8---8---8---8--|---8---8---8---8---8---8-----8--|
----------------------------------|-----------------------------8--|


  E  E  E  E  E  E  E  E     E  E  E  E  E  E  E  E       Q.     Q.      Q     
--------------------------|--------------------------||-----------------------|
--------------------------|--------------------------||-----------------------|
--------------------------|--------------------------||*--7------9------10----|
--L--8--8--8--8--8--8--5--|--L--5--5--5--5--5--5--5--||*--x------x-------x----|
--L--8--8--8--8--8--8--5--|--L--5--5--5--5--5--5--5--||---5------7-------8----|
--L--8--8--8--8--8--8--5--|--L--5--5--5--5--5--5--5--||-----------------------|


   W                   Q.     Q.      Q        H         H         
--------------------|----------------------|----------------------|
--------------------|----------------------|----------------------|
--14----------------|--7------9------10----|--17--------14--------|
---x----------------|--x------x-------x----|---x---------x--------|
--12----------------|--5------7-------8----|--15--------12--------|
--------------------|----------------------|----------------------|


  Q.     Q.     Q       W                   Q.     Q.     Q     
--5------------------|-------------------|---------------------|
---------6-----------|-------------------|---------5------6----|
----------------9----|--L----------------|--7------------------|
---------------------|-------------------|---------------------|
---------------------|-------------------|---------------------|
---------------------|-------------------|---------------------|


                              PM                             
  Q.     Q.     Q          E  E   E    E    E   E    E   E   
--8-------------------||------------------------------------|
---------6------5-----||------------------------------------|
---------------------*||*-----------------------------------|
---------------------*||*--------10h--12p--10---------------|
----------------------||---0--0----------------12p--10p--0--|
----------------------||---0--0-----------------------------|


                          PM          PM                             
   E    E   E  E   E   E  E  E     E  E   E    E    E   E    E   E   
--------------------------------|-----------------------------------|
--------------------------------|-----------------------------------|
--------------------------------|-----------------------------------|
--------------------------------|--------10h--12p--10---------------|
--10h--12p--0--7h--8---------5--|--L-------------------12p--10p--0--|
----------------------10--0-----|-----0-----------------------------|


  E   E   E  E   E   E   E  E     E  E  E  E  S   S  E   E   E   
----------------------------0--|--L--0--0--0--8h-10p-8--10---L--|
----------------------------5--|--L--6--6--6----------------10--|
-------------------------------|--------------------------------|
-------------------------------|--------------------------------|
--7h--8p--0--3h--5p--3p--0-----|--------------------------------|
-------------------------------|--------------------------------|


  W                   E  E  E  E  S   S  E   E   E   
-------------------|--0--0--0--0--8h-10p-8--10---L--|
--L----------------|--5--6--6--6----------------10--|
-------------------|--------------------------------|
-------------------|--------------------------------|
-------------------|--------------------------------|
-------------------|--------------------------------|


  E    E   E  E    E   E  E    E        E  E   E   E  E   E   E  E   
--------------------------8h--10---||---L--L---L--10--L---L--10--L--|
--8h--10p--8-----------------------||------8---L---L--8---L---L--8--|
--------------9h--10p--9----------*||*--------10---L--L--10---L--L--|
----------------------------------*||*------------------------------|
-----------------------------------||-------------------------------|
-----------------------------------||-------------------------------|


   E   E  E   E   E  E   E   E     E   E   E   E   E   E   E   E   
---L--10--L---L--10--L---L--13--|--L----------13--------------10--|
---L---L--8---L---L--8---L---L--|--L--10---L---L--10---L--10---8--|
--10---L--L--10---L--L--10---L--|--L---L--12---L---L--12----------|
--------------------------------|---------------------------------|
--------------------------------|---------------------------------|
--------------------------------|---------------------------------|


  E   E   E  E  E  E  E  E      E   E   E   E   E   E   E   E   
--L--10--10--8--L--8--8-----|----------------------------------|
--L---8---8--8--L--8--8-----|----------------------------------|
-------------------------9--|--10--10--10--10--10--10--10--10--|
-------------------------x--|---x---x---x---x---x---x---x---x--|
-------------------------7--|---8---8---8---8---8---8---8---8--|
----------------------------|----------------------------------|


   E   E   E   E   E   E  E  E     E  E  E  E  E  E  E  E   
--------------------------------|--------------------------|
--------------------------------|--------------------------|
--10--10--10--10--10--10--------|--------------------------|
---x---x---x---x---x---x-----8--|--L--8--8--8--8--8--8--5--|
---8---8---8---8---8---8-----8--|--L--8--8--8--8--8--8--5--|
-----------------------------8--|--L--8--8--8--8--8--8--5--|


  E  E  E  E  E  E  E  E     
---------------------------||
---------------------------||
--------------------------*||
--L--5--5--5--5--5--5--5--*||
--L--5--5--5--5--5--5--5---||
--L--5--5--5--5--5--5--5---||



[ Tab from: http://www.guitartabs.cc/tabs/o/our_last_night/recovery_tab.html ]
________________________________________________________________________
************************************************************************
########################################################################
________________________________________________________________________



Rhythm Guitar



      E  E  E  E  E  E  E  E     E  E  E  E  E  E  E  E   
D#||--------------------------|--------------------------|
A#||--------------------------|--------------------------|
F#||--7--7--7--L--7--7--7--7--|--L--7--7--L--7--7--------|
C#||--7--7--7--L--7--7--7--7--|--L--7--7--L--7--7-----3--|
G#||--5--5--5--L--5--5--5--5--|--L--5--5--L--5--5-----3--|
C#||--------------------------|-----------------------3--|


  E  E  E  E  E  E  E  E     E  E  E  E  E  E  E  E   
--------------------------|--------------------------|
--------------------------|--------------------------|
--------------------------|-----------------------5--|
--L--3--3--3--3--3--3--5--|--L--5--5--5--5--5--5--x--|
--L--3--3--3--3--3--3--5--|--L--5--5--5--5--5--5--3--|
--L--3--3--3--3--3--3--5--|--L--5--5--5--5--5--5-----|


  E  E  E  E  E  E  E  E     E  E  E  E  E  E  E  E   
--------------------------|-----------------------0--|
--------------------------|-----------------------6--|
--7--7--7--7--7--7--7--7--|--7--7--7--7--7--7--------|
--x--x--x--x--x--x--x--x--|--x--x--x--x--x--x--------|
--5--5--5--5--5--5--5--5--|--5--5--5--5--5--5--------|
--------------------------|--------------------------|


  E  E  E  E  E  E  E  E     E  E  E  E  E  E  E  E   
--L--0--0--0--0--0--0--3--|--L--3--3--3--3--3--3-----|
--L--5--5--5--5--5--5--5--|--L--5--5--5--5--5--5-----|
--------------------------|-----------------------7--|
--------------------------|-----------------------7--|
--------------------------|-----------------------5--|
--------------------------|--------------------------|


  E  E  E  E  E  E  E  E     E  E  E  E  E  E  E  E   
--------------------------|--------------------------|
--------------------------|--------------------------|
--L--7--7--L--7--7--7--7--|--L--7--7--L--7--7--L-----|
--L--7--7--L--7--7--7--7--|--L--7--7--L--7--7--L--3--|
--L--5--5--L--5--5--5--5--|--L--5--5--L--5--5--L--3--|
--------------------------|-----------------------3--|


  E  E  E  E  E  E  E  E     E  E  E  E  E  E  E  E   
--------------------------|--------------------------|
--------------------------|--------------------------|
--------------------------|-----------------------5--|
--L--3--3--3--3--3--3--5--|--L--5--5--5--5--5--5--x--|
--L--3--3--3--3--3--3--5--|--L--5--5--5--5--5--5--3--|
--L--3--3--3--3--3--3--5--|--L--5--5--5--5--5--5-----|


  E  E  E  E  E  E  E  E     E  E  E  E  E  E  E  E   
--------------------------|-----------------------0--|
--------------------------|-----------------------6--|
--7--7--7--7--7--7--7--7--|--7--7--7--7--7--7--------|
--x--x--x--x--x--x--x--x--|--x--x--x--x--x--x--------|
--5--5--5--5--5--5--5--5--|--5--5--5--5--5--5--------|
--------------------------|--------------------------|


  E  E  E  E  E  E  E  E     E  E  E  E  E  E  E  E       Q.     Q.     Q     
--L--0--0--0--0--0--0--3--|--L--3--3--3--3--3--3--3--||----------------------|
--L--5--5--5--5--5--5--5--|--L--5--5--5--5--5--5--5--||----------------------|
--------------------------|--------------------------||*---------------------|
--------------------------|--------------------------||*--0------0------0----|
--------------------------|--------------------------||---0------0------0----|
--------------------------|--------------------------||---0------0------0----|


  W                   Q.     Q.     Q       W                 
-------------------|---------------------|-------------------|
-------------------|---------------------|-------------------|
-------------------|---------------------|-------------------|
--0----------------|--0------0------0----|--0----------------|
--0----------------|--0------0------0----|--0----------------|
--0----------------|--0------0------0----|--0----------------|


  Q.     Q.     Q       W                   Q.     Q.     Q     
---------------------|-------------------|---------------------|
---------------------|-------------------|---------------------|
---------------------|-------------------|---------------------|
--8------8------8----|--8----------------|--3------3------3----|
--8------8------8----|--8----------------|--3------3------3----|
--8------8------8----|--8----------------|--3------3------3----|


                                PM PM PM                                    
  Q.     Q.     Q          Q    E  E  E  E  E  E     Q    Q    E  E  E  E   
----------------------||--------------------------|------------------------|
----------------------||--------------------------|------------------------|
---------------------*||*-------------------------|------------------------|
--5------5------5----*||*-------------------------|------------------------|
--5------5------5-----||---0----0--0--0-----------|---------------0-----0--|
--5------5------5-----||---0----0--0--0-----------|---------------0-----0--|


     PM PM PM PM PM                                    
  E  S  S  E  E  E  E  E  E     Q    Q    E  E  E  E   
-----------------------------|------------------------|
-----------------------------|------------------------|
-----------------------------|------------------------|
-----------------------------|------------------------|
--L--0--0--0--0--0-----------|---------------0-----0--|
--L--0--0--0--0--0-----------|---------------0-----0--|


  E  E  E  E  E  E  E  E     W                 
--------------------------|-------------------|
--------------------------|-------------------|
--------------------------|-------------------|
--8--8--8--8--8--8--8--8--|--8----------------|
--8--8--8--8--8--8--8--8--|--8----------------|
--8--8--8--8--8--8--8--8--|--8----------------|


   E   E   E   E   E   E   E   E      W                   
----------------------------------|---------------------||
----------------------------------|---------------------||
----------------------------------|--------------------*||
--10--10--10--10--10--10--10--10--|--10----------------*||
--10--10--10--10--10--10--10--10--|--10-----------------||
--10--10--10--10--10--10--10--10--|--10-----------------||


   E  E  E  E  E  E  E  E     E  E  E  E  E  E  E  E   
---------------------------|--------------------------|
---------------------------|--------------------------|
*--L--7--7--L--7--7--7--7--|--L--7--7--L--7--7--L-----|
*--L--7--7--L--7--7--7--7--|--L--7--7--L--7--7--L--3--|
---L--5--5--L--5--5--5--5--|--L--5--5--L--5--5--L--3--|
---------------------------|-----------------------3--|


  E  E  E  E  E  E  E  E     E  E  E  E  E  E  E  E   
--------------------------|--------------------------|
--------------------------|--------------------------|
--------------------------|-----------------------5--|
--L--3--3--3--3--3--3--5--|--L--5--5--5--5--5--5--x--|
--L--3--3--3--3--3--3--5--|--L--5--5--5--5--5--5--3--|
--L--3--3--3--3--3--3--5--|--L--5--5--5--5--5--5-----|


  E  E  E  E  E  E  E  E     E  E  E  E  E  E  E  E   
--------------------------|-----------------------0--|
--------------------------|-----------------------6--|
--7--7--7--7--7--7--7--7--|--7--7--7--7--7--7--------|
--x--x--x--x--x--x--x--x--|--x--x--x--x--x--x--------|
--5--5--5--5--5--5--5--5--|--5--5--5--5--5--5--------|
--------------------------|--------------------------|


  E  E  E  E  E  E  E  E     E  E  E  E  E  E  E  E     
--L--0--0--0--0--0--0--3--|--L--3--3--3--3--3--3--3---||
--L--5--5--5--5--5--5--5--|--L--5--5--5--5--5--5--5---||
--------------------------|--------------------------*||
--------------------------|--------------------------*||
--------------------------|---------------------------||
--------------------------|---------------------------||




Duration Legend
---------------
W - whole
H - half
Q - quarter
E - 8th
S - 16th
T - 32nd
X - 64th
. - note dotted
|-n-|  - n-tuplets


Tablature Legend
----------------
L - tied note
x - dead note
g - grace note
(n) - ghost note
> - accentuded note
NH - natural harmonic
AH - artificial harmonic
TH - tapped harmonic
SH - semi harmonic
PH - pitch harmonic
h - hammer on
p - pull off
b - bend
br - bendRelease
pb - preBend
pbr - preBendRelease
brb - bendReleaseBend
\n/ - tremolo bar dip
\n - tremolo bar dive
-/n - tremolo bar Release up
/n\ - tremolo bar inverted dip
/n - tremolo bar return
-\n - tremolo bar Release down
S - shift slide
s - legato slide
/ -  slide into from below or out of upwards
\ -  slide into from above or out of downwards
~ - vibrato
W - wide vibrato
tr - trill
TP - tremolo picking
T - tapping
S - slap
P - pop
< - fade in
^ - brush up
v - brush down

*****Special thanks to In Dying Arms for making the source gp tab********

Comments