Our Last Night - Elephants Chords & Tabs

 

Elephants Chords & Tabs

Our Last Night Chords & Tabs

Version: 1 Type: Tab 0 ratings
1 star 2 stars 3 stars 4 stars 5 stars
comments

Elephants Tab

	Elephants
	
Artist: Our Last Night
Album: We Will All Evolve
Year: 2010
Info:
 . | Palm Mute
 x | Fret Mute
 * | Pinch Harmonic
 / | Slide Down
 \ | Slide Up


	Intro:
	
Guitar 1:
eb|-------------------------------------------------------------------|
Bb|-------------------------------------------------------------------|
Gb|-----0-----0-----0-----0--------------0-----0-----0-----0----------|
Db|-----3-----3-----3-----3--------------3-----3-----3-----3----------|
Ab|-------------------------00000000-------------------------00000----|
Db|-4-2---4-2---4-2---4-2---00000000-4-2---4-2---4-2---4-2---00000----|
  |
Guitar 2:
eb|-------------------------------------------------------------------|
Bb|-------------------------------------------------------------------|
GB|-------------------------------------------------------------------|
Db|-------------------------------------------------------------------|
Ab|-------------------------------------------------------------------|
Db|-------------------------------------------------------------------|

Guitar 1:
eb|-------------------------------------------------------------------|
Bb|-------------------------------------------------------------------|
Gb|-----0-----0-----0-----0--------------0-----0-----0-----0----------|
Db|-----3-----3-----3-----3--------------3-----3-----3-----3----------|
Ab|-------------------------00000000-------------------------00000----|
Db|-4-2---4-2---4-2---4-2---00000000-4-2---4-2---4-2---4-2---00000----|
  |
Guitar 2:
eb|-------------------------------------------------------------------|
Bb|-------------------------------------------------------------------|
GB|-------------------------------------------------------------------|
Db|----------------------------------------------------------xxxxxxxx-|
Ab|----------------------------------------------------------xxxxxxxx-|
Db|----------------------------------------------------------xxxxxxxx-|

Both Guitars:
eb|-------------------------------------------------------------------|
Bb|-------------------------------------------------------------------|
Gb|-----0-----0-----0-----0--------------0-----0-----0-----0----------|
Db|-----3-----3-----3-----3--------------3-----3-----3-----3----------|
Ab|-------------------------00000000-------------------------00000----|
Db|-4-2---4-2---4-2---4-2---00000000-4-2---4-2---4-2---4-2---00000----|

	1st Verse:

Guitar 1:
eb|--------------------------------------------------------------------|
Bb|--------------------------------------------------------------------|
Gb|--------------------------------------------------------------------|
Db|-1--1--1---1-1-1-4--4--4--6---6---1--1--1---1-1-1-7--7--7--6-6-6-6--|
Ab|-1--1--1---1-1-1-4--4--4--3---6---1--1--1---1-1-1-7--7--7--6-6-6-6--|
Db|-1--1--1---1-1-1-4--4--4--6---6---1--1--1---1-1-1-7--7--7--6-6-6-6--|
  |
Guitar 2:
eb|--------------------------------------------------------------------|
Bb|--------------------------------------------------------------------|
Gb|-8--8--8---8-8-8-11-11-11-13--13--8--8--8---8-8-8-14-14-14-13131313-|
Db|-x--x--x---x-x-x-x--x--x--x---x---x--x--x---x-x-x-x--x--x--x-x-x-x--|
Ab|-6--6--6---6-6-6-9--9--9--11--11--6--6--6---6-6-6-12-12-12-11111111-|
Db|--------------------------------------------------------------------|

Both Guitars:
eb|------------------------------------------------------------------|
Bb|---3-3---3-3---3-3---3-3-----------3-3---3-3---3-3---3-3----------|
Gb|---6-6---6-6---6-6---6-6-----------6-6---6-6---6-6---6-6----------|
Db|------------------------------------------------------------------|
Ab|-0-----0-----0-----0-------------0-----0-----0-----0-----000------|
Db|-0-----0-----0-----0-----5-5-3-3-0-----0-----0-----0-----000-5-7--|

Both Guitars:
eb|-----------------------------------|
Bb|-----------------------------------|
Gb|-----------------------------------|
Db|-8---------8-----7--------7--7--7--|
Ab|----8--------8------7-----7--7--7--|
Db|-------8-------8-------7--7--7--7--|


	1st Bridge:

Guitar 1:
eb|-----------------------------------------------------------------------------------|
Bb|-----------------------------------------------------------------------------------|
Gb|-10----------------------9---------------7-------------------------7-7-------------|
Db|-10----------------------10--------------7-------------------7-7-7-7-7-------------|
Ab|-8-----------------------7---------------5-------------------5-5-5-5-5-------------|
Db|-----------------------------------------------------------------------------------|
  |                                                             . .                   |
  |
Guitar 2: (Tremolo Picking)
eb|-----------------------------------------------------------------------------------|
Bb|-------------------------------------------------10-10-10-10-----------------------|
Gb|-10-10-10-10-10-10-10-10-9-9-9-9-9-9-9-9-7-7-7-7-------------7-7-7-7-7-------------|
Db|-----------------------------------------------------------------------------------|
Ab|-----------------------------------------------------------------------------------|
Db|-----------------------------------------------------------------------------------|

	1st Chorus:

Both Guitars:
eb|----------------------------------------------------------|
Bb|----------------------------------------11----------------|
Gb|--------------------------7/------------11----------------|
Db|-0-------0-------0-------0x/-8--8--8880-x--3--3--33-------|
Ab|-0-----000---00000---000005/-8--8--8880-8--3--3--333--3---|
Db|-0-----000---00000---00000---8--8--8880----3--3--332--2---|

eb|----------------------------------------------------------|
Bb|----------------------------------------11----------------|
Gb|--------------------------7/------------11----------------|
Db|-0-------0-------0-------0x/-8--8--8880-x--3--3--33-------|
Ab|-0-----000---00000---000005/-8--8--8880-8--3--3--333--3---|
Db|-0-----000---00000---00000---8--8--8880----3--3--332--2---|
    Let open strings ring 2nd
	    rep.

Both Guitars:
eb|-----------------------------------------------------------------------------|
Bb|-----------------------------------------------------------------------------|
Gb|-----0-----0-----0-----0--------------0-----0-----0-----0--------------------|
Db|-----3-----3-----3-----3--------------3-----3-----3-----3---------0----------|
Ab|-------------------------00000000-------------------------000---000----------|
Db|-4-2---4-2---4-2---4-2---00000000-4-2---4-2---4-2---4-2---000---000----------|


	1st Breakdown:

Both Guitars:
eb|-------------------------------------------------------------|
Bb|-------------------------------------------------------------|
Gb|-------------------------------------------------------------|
Db|-0-----------------------------0-----------------------------|
Ab|-0----------001\----------000000----------001\--000--000--00-|
Db|-0-14101410-001\-001410141000000-14101410-001\--000--000--00-|
  | .          ..            ......          ..    ...  ...  .. |

Both Guitars:
eb|-------------------------------------------------------------|
Bb|-------------------------------------------------------------|
Gb|-------------------------------------------------------------|
Db|-0-----------------------------0-----------------------0-12/-|
Ab|-0----------001\----------000000----------001\--000--000-12/-|
Db|-0-14101410-001\-001410141000000-14101410-001\--000--000-12/-|
  | .          ..            ......          ..    ...  ..      |
  

  
  
  
  
	2nd Verse:

Guitar 1:
eb|--------------------------------------------------------------------|
Bb|--------------------------------------------------------------------|
Gb|--------------------------------------------------------------------|
Db|-1--1--1---1-1-1-4--4--4--6---6---1--1--1---1-1-1-7--7--7--6-6-6-6--|
Ab|-1--1--1---1-1-1-4--4--4--6---6---1--1--1---1-1-1-7--7--7--6-6-6-6--|
Db|-1--1--1---1-1-1-4--4--4--6---6---1--1--1---1-1-1-7--7--7--6-6-6-6--|
  |
Guitar 2:
eb|--------------------------------------------------------------------|
Bb|--------------------------------------------------------------------|
Gb|-8--8--8---8-8-8-11-11-11-13--13--8--8--8---8-8-8-14-14-14-13131313-|
Db|-x--x--x---x-x-x-x--x--x--x---x---x--x--x---x-x-x-x--x--x--x-x-x-x--|
Ab|-6--6--6---6-6-6-9--9--9--11--11--6--6--6---6-6-6-12-12-12-11111111-|
Db|--------------------------------------------------------------------|

Guitar 1:
eb|------------------------------------------------------------------|
Bb|------------------------------------------------------------------|
Gb|---1010--1010--1010--1010----------1010--1010--1010--10109--9--9--|
Db|---x-x---x-x---x-x---x-x-----------x-x---x-x---x-x---x-x-x--x--x--|
Ab|-0-8-8-0-8-8-0-8-8-0-8-8---------0-8-8-0-8-8-0-8-8-0-8-8-7--7--7--|
Db|-0-----0-----0-----0-----5-5-3-3-0-----0-----0-----0--------------|
  |
Guitar 2:
eb|------------------------------------------------------------------|
Bb|------------------------------------------------------------------|
Gb|---7-7---7-7---7-7---7-7-----------7-7---7-7---7-7---7-7-9--9--9--|
Db|---x-x---x-x---x-x---x-x-----------x-x---x-x---x-x---x-x-x--x--x--|
Ab|-0-5-5-0-5-5-0-5-5-0-5-5---------0-5-5-0-5-5-0-5-5-0-5-5-7--7--7--|
Db|-0-----0-----0-----0-----5-5-3-3-0-----0-----0-----0--------------|


	2nd Bridge:
[ Tab from: http://www.guitartabs.cc/tabs/o/our_last_night/elephants_tab.html ]
Guitar 1: (Clean)
eb|-----------------------------------------------------------------------------------|
Bb|-----------------------------------------------------------------------------------|
Gb|-----------------------------------------------------------------------------------|
Db|-7-----------7-----------5-------5-------7-----7-------8-------7-----5----7--------|
Ab|----8--8--8-----8--8--8----7-7-7---7-7-7---5-5---5--5-----5--5---5-5---5-----5-----|
Db|-----------------------------------------------------------------------------------|
  |
Guitar 2: (Tremolo Picking)
eb|-----------------------------------------------------------------------------------|
Bb|-------------------------------------------------10-10-10-10-----------11-11-10-10-|
Gb|-10-10-10-10-10-10-10-10-9-9-9-9-9-9-9-9-7-7-7-7-------------7-7-7-7-7-------------|
Db|-----------------------------------------------------------------------------------|
Ab|-----------------------------------------------------------------------------------|
Db|-----------------------------------------------------------------------------------|


Guitar 1: (Clean)
eb|-----------------------------------------------------------------------------------|
Bb|-----------------------------------------------------------------------------------|
Gb|-----------------------------------------------------------------------------------|
Db|-7-----------7-----------5-------5-------7-----7-------8-------7-----5-------------|
Ab|----8--8--8-----8--8--8----7-7-7---7-7-7---5-5---5--5-----5--5---5-5---------------|
Db|-----------------------------------------------------------------------------------|
  |
Guitar 2: (Tremolo Picking)
eb|-----------------------------------------------------------------------------------|
Bb|-------------------------------------------------10-10-10-10-----------11-11-10-10-|
Gb|-10-10-10-10-10-10-10-10-9-9-9-9-9-9-9-9-7-7-7-7-------------7-7-7-7-7-------------|
Db|-----------------------------------------------------------------------------------|
Ab|-----------------------------------------------------------------------------------|
Db|-----------------------------------------------------------------------------------|


	2nd Chorus:

Both Guitars:
eb|----------------------------------------------------------|
Bb|----------------------------------------11----------------|
Gb|--------------------------7/------------11----------------|
Db|-0-------0-------0-------0x/-8--8--8880-x--3--3--33-------|
Ab|-0-----000---00000---000005/-8--8--8880-8--3--3--333--3---|
Db|-0-----000---00000---00000---8--8--8880----3--3--332--2---|

eb|----------------------------------------------------------|
Bb|----------------------------------------11----------------|
Gb|--------------------------7/------------11----------------|
Db|-0-------0-------0-------0x/-8--8--8880-x--3--3--33-------|
Ab|-0-----000---00000---000005/-8--8--8880-8--3--3--333--3---|
Db|-0-----000---00000---00000---8--8--8880----3--3--332--2---|


	2nd Breakdown:
		
Both Guitars:
eb|-------------------------------------------------------------|
Bb|-------------------------------------------------------------|
Gb|-7------------7----------------------------------------------| x2
Db|-x--0-0-8--0--x--0-0--7-------8-8----8--8--8-7-------7-------|(First Rep
Ab|-5-00-0-8--0--5-00-0---85047408-8--888-88-88-7-777-7-7-7-7-7-| Only One
Db|---00-0-8--0----00-0----------8-8--888-88-88-7-777-7-7-7-7-7-| Guitar)
  |   .            .                  ..  .  .    ... . . . . . |
  
Both Guitars:
eb|-------------------------------------------------------------|
Bb|-------------------------------------------------------------|
Gb|-7------------7----------------------------------------------|
Db|-x--0-0-8--0--x--0-0--7-------8-8----8--8--8-7-----------7-7-|
Ab|-5-00-0-8--0--5-00-0---85047408-8--888-88-88-7-777-7-7-7-7-7-|
Db|---00-0-8--0----00-0----------8-8--888-88-88-7-777-7-7-7-7-7-|
  |   .            .                  ..  .  .    ... . .       |


	Interlude:
  
Guitar 1:
eb|----------------------------------------------------------|
Bb|----------------------------------------------------------|
Gb|-101010101010101099999999------1414141414------1515141414-|
Db|-------------------------121212----------101010-----------|
Ab|----------------------------------------------------------|
Db|----------------------------------------------------------|
  |
Guitar 2:
eb|----------------------------------------------------------|
Bb|-101010101010101088888888------1313131313------1515131313-|
Gb|-------------------------101010----------101010-----------|
Db|----------------------------------------------------------|
Ab|----------------------------------------------------------|
Db|----------------------------------------------------------|
  |
Guitar 3:
eb|----------------------------------------------------------|
Bb|----------------------------------------------------------|
Gb|----------------------------------------------------------|
Db|-0-0-0-0-0-0-0-0-00000008-8---8-----8-8-7-7---7-----7-7---|
Ab|-0-0-0-0-0-0-0-0-00000008-8---8-----8-8-7-7---7-----7-7---|
Db|-0-0-0-0-0-0-0-0-00000008-8---8-----8-8-7-7---7-----7-7---|


Guitar 1:
eb|----------------------------------------------------------|
Bb|----------------------------------------------------------|
Gb|-101010101010101099999999------1414141414------1515141414-|
Db|-------------------------121212----------101010-----------|
Ab|----------------------------------------------------------|
Db|----------------------------------------------------------|
  |
Guitar 2:
eb|----------------------------------------------------------|
Bb|-101010101010101088888888------1313131313------1515131313-|
Gb|-------------------------101010----------101010-----------|
Db|----------------------------------------------------------|
Ab|----------------------------------------------------------|
Db|----------------------------------------------------------|
  |
Guitar 3:
eb|----------------------------------------------------------|
Bb|----------------------------------------------------------|
Gb|----------------------------------------------------------|
Db|-000000000101010101010108-8---8-----8-8-7-7---7-----7-----|
Ab|-000000000101010101010108-8---8-----8-8-7-7---7-----------|
Db|-000000000101010101010108-8---8-----8-8-7-7---7-----------|
  |                                                    *     |


	3rd Breakdown:
  
Guitar 1:
eb|-------------------------------------------------------------|
Bb|-------------------------------------------------------------|
Gb|-7------------7----------------------------------------------|
Db|-x--0-0-8--0--x--0-0--7-------8-8----8--8--8-7-------7-------|
Ab|-5-00-0-8--0--5-00-0---85047408-8--888-88-88-7-777-7-7-7-7-7-|
Db|---00-0-8--0----00-0----------8-8--888-88-88-7-777-7-7-7-7-7-|
  |   .            .                  ..  .  .    ... . . . . . |
  
Guitar 2:
eb|-------------------------------------------------------------|
Bb|-------------------------------------------------------------|
Gb|-10-----------10---------------------------------------------|
Db|-x--0-0-8--0--x--0-0--7-------8-8----8--8--8-7-------7-------|
Ab|-8-00-0-8--0--8-00-0---85047408-8--888-88-88-7-777-7-7-7-7-7-|
Db|---00-0-8--0----00-0----------8-8--888-88-88-7-777-7-7-7-7-7-|
  |   .            .                  ..  .  .    ... . . . . . |
  
Guitar 1:
eb|-------------------------------------------------------------|
Bb|-------------------------------------------------------------|
Gb|-7------------7----------------------------------------------|
Db|-x--0-0-8--0--x--0-0--7-------8-8----8--8--8-7---------------|
Ab|-5-00-0-8--0--5-00-0---85047408-8--888-88-88-7-777-7---------|
Db|---00-0-8--0----00-0----------8-8--888-88-88-7-777-7---------|
  |   .            .                  ..  .  .    ... .         |
  |
Guitar 2:
eb|-------------------------------------------------------------|
Bb|-------------------------------------------------------------|
Gb|-10-----------10---------------------------------------------|
Db|-x--0-0-8--0--x--0-0--7-------8-8----8--8--8-7---------------|
Ab|-8-00-0-8--0--8-00-0---85047408-8--888-88-88-7-777-7---------|
Db|---00-0-8--0----00-0----------8-8--888-88-88-7-777-7---------|
  |   .            .                  ..  .  .    ... .         |

  
	3rd Chorus:

Both Guitars:
eb|------------------------------------------------------------|
Bb|-----------------------------------------11-----------------|
Gb|--------------------------7/-------------11-----------------|
Db|-0-------0-------0--------x/-8-8-8-8-8-88x--3-3-3-3---------|
Ab|-0-----000---00000---000-05/-8-8-8-8-8-888--3-3-3-3-3-3-3-3-|
Db|-0-----000---00000---000-0---8-8-8-8-8-88---3-3-3-3-2-2-2-2-|





Guitar 1:
eb|------------------------------------------------------------|
Bb|------------------------------------------------------------|
Gb|------------------------------------------------------------|
Db|-0-------0-------0-----------8-8-8-8-8-8-8-1010101010111111-|
Ab|-0-----000---00000---00------8-8-8-8-8-8-8-1010101010111111-|
Db|-0-----000---00000---00------8-8-8-8-8-8-8-1010101010111111-|
  |
Guitar 2:
eb|------------------------------------------------------------|
Bb|------------------------------------------------------------|
Gb|-10--------------10----------161616161616161515151515131313-|
Db|-x-------0-------x-----------x-x-x-x-x-x-x-x-x-x-x-x-x-x-x--|
Ab|-8-----000---00008---00------131313131313131212121212101010-|
Db|-------000---0000----00-------------------------------------|

Guitar 1:
eb|------------------------------------------------------------|
Bb|------------------------------------------------------------|
Gb|------------------------------------------------------------|
Db|-0-------0-------0-----------8-8-8-8-8-8-8-10101010101111---|
Ab|-0-----000---00000---00------8-8-8-8-8-8-8-10101010101111---|
Db|-0-----000---00000---00------8-8-8-8-8-8-8-10101010101111---|
  |
Guitar 2:
eb|------------------------------------------------------------|
Bb|------------------------------------------------------------|
Gb|-10--------------10----------1616161616161615151515151313---|
Db|-x-------0-------x-----------x-x-x-x-x-x-x-x-x-x-x-x-x-x----|
Ab|-8-----000---00008---00------1313131313131312121212121010---|
Db|-------000---0000----00-------------------------------------|


Let last note ring...

	Outro:

Both Guitars:
eb|-----------------------------------------------------------|
Bb|-----------------------------------------------------------|
Gb|--------------------------7---------------------------7----|
Db|-0-------0-------0-------0x--0-------0-------0-------0x--0-|
Ab|-0-----000---00000---000005--0-----000---00000---000005--0-|
Db|-0-----000---00000---00000---0-----000---00000---00000---0-|
Comments