Our Last Night - Elephants Chords & Tabs

 

Elephants Chords & Tabs

Our Last Night Chords & Tabs

Version: 1 Type: Bass Tab 0 ratings
1 star 2 stars 3 stars 4 stars 5 stars
comments

Elephants Bass Tab

Artist: Our Last Night
Song: Elephants
Album: We Will All Evolve

/=Slide up
\=Slide down
()=Optional notes


Intro:
|-------------------------------|
|----3----3----3----3-----------|
|-------------------------------| x4
|-4-3--4-3--4-3--4-3--4-00000000|

Verse 1:
|-------------------------------------------|
|-------------------------------------------|
|-------------------------------------------|
|-11111-44444-6666-11111-77777-6666---------|

|--------------------------------------------------------------------------|
|--------------------------------------------------------------------------|
|--------------------------------------------------------------------------|
|-0----0----0----0----4-4-3-3-0-----0----0----0----000-5-7-8-8888-7777-----|

No bass played in this Bridge bit

Chorus x2:
|-----------------------------------------------|
|-----------------------------------------------|
|------------------------(5)--------------------|
|--0---000--00000--00000----8-8-888-0--333322---|
  (2nd time round let the notes win)

Intro x2

1st Breakdown x2:
|---------------------------------------------------------------------------|
|---------------------------------------------------------------------------|
|---------------------------------------------------------------------------|
|0-1h4p1p01h4p1p0-001-001h4p1p01h4p1000000-1h4p1h01h4p1p0-001--000--000--00-|

Verse 2:
|-------------------------------------------|
|-------------------------------------------|
|-------------------------------------------|
|-11111-44444-6666-11111-77777-6666---------|
[ Tab from: http://www.guitartabs.cc/tabs/o/our_last_night/elephants_btab.html ]
|--------------------------------------------------------------------------|
|--------------------------------------------------------------------------|
|--(88)-(88)-(88)-(88)---------(55)-(55)-(55)-(55)-------------------------|
|-0----0----0----0----5-5-3-3-0----0----0----0----000-5-7------------------|

1st Bridge x2:
|-------------------------------------------|
|-------------------------------------------|
|-88888888-77777777-5555555555555555--------|
|-------------------------------------------|

2nd Breakdown x2:
|-----------------------------------------------------------|
|-----------------------------------------------------------|
|-5----5----0h5h8p5-0h4h7p40--------------------------------|
|--0008--000-----------------88-888-8888-7-777-7-7-7-7-7----|

2nd Bridge x2:
|----------------------------------------------|
|----------------------------------------------|
|-88888888-77777777-5555/17171717\5555/18181818|
|----------------------------------------------|

2nd Breakdown again x2:
|-----------------------------------------------------------|
|-----------------------------------------------------------|
|-5----5----0h5h8p5-0h4h7p40--------------------------------|
|--0008--000-----------------88-888-8888-7-777-7-7-7-7-7----|

break with just piano


Chorus x2:
|-----------------------------------------------|
|-----------------------------------------------|
|------------------------(5)--------------------|
|--0---000--00000--00000----8-8-888-0--333322---|
  (2nd time round let the notes win)

Outro:
|------------------------------------------------------|
|------------------------------------------------------|
|------------------------------------------------------|
|---0----000--00000--00000--0----000--00000--00000--0--|
Comments