Our Lady Peace - Whatever Chords & Tabs

 

Whatever Chords & Tabs

Our Lady Peace Chords & Tabs

Version: 3 Type: Tab 0 ratings
1 star 2 stars 3 stars 4 stars 5 stars
comments

Whatever Tab

   
Song: Whatever 
Band: Our Lady Peace
Tabbed by: Marc L.

Tuning (Eb Ab Db Gb Bb Eb)


Intro/Pre-Chorus

  E E E E Q E E E E Q Q Q  8x
|--------------------------||
|-------------------------o||
|-7-7-7-7-7-7-7-7-7-7-x-x--||
|-7-7-7-7-7-7-7-7-7-7-x-x--||
|-5-5-5-5-5-5-5-5-5-5-x-x-o||
|--------------------------||


Verse

  H Q Q W W W
|-5---5-4/6-5---||
|-6-6---4/6-5--o||
|-5-----5/7-6---||
|---------------||
|--------------o||
|---------------||


Chorus

   W  W W E E E E E E E E
|----------------------------|
|----------------------------|
|-10-10-7-7-7-7-7-7-7-7-7----|
|-10-10-7-7-7-7-7-7-7-7-7----|
|--8--8-5-5-5-5-5-5-5-5-5----|
|----------------------------|


Solo
[ Tab from: http://www.guitartabs.cc/tabs/o/our_lady_peace/whatever_tab_ver_3.html ]
   Q  E  E  E  E  E  E Q W       E  E  E  E  E  E  E  E E W       E  E  E  E  E  E  E  E  E  E  E  E  E  E  E  E
|-12-12p10-12p10-12p10----------12p10-12p10-12p10-12p10----------------------------------------------------------|
|----------------------9-9b(10)r------------------------9-9b(10)r10-10-10-10-10-10-10-10-10-10-10-10-10-10-10-10-|
|----------------------------------------------------------------12-12-12-12-12-12-12-12-10-10-10-10-10-10-10-10-|
|----------------------------------------------------------------------------------------------------------------|
|----------------------------------------------------------------------------------------------------------------|
|----------------------------------------------------------------------------------------------------------------|


   E  E  E  E  E  E  E  E  E  E  E  E  E  E  E  E  E
|--------------------------------------------------------|
|-10-10-10-10-10-10-10-10-14-14-14-14-15-15-15-15-17/----|
|-12-12-12-12-12-12-12-12-14-14-14-14-15-15-15-15-17/----|
|--------------------------------------------------------|
|--------------------------------------------------------|
|--------------------------------------------------------|


Thats it...repeat the sections when necessary...
..questions, comments send em to cramis1@yahoo.com

Duration Legend
---------------
W - whole; H - half; Q - quarter; E - 8th; S - 16th; T - 32nd; X - 64th; a - acciaccatura
+ - note tied to previous; . - note dotted; .. - note double dotted


Tablature Legend
----------------
 h   - hammer-on
 p   - pull-off
 b   - bend
 pb  - pre-bend
 r   - bend release (if no number after the r, then release immediately)
 /\  - slide into or out of (from/to "nowhere")
 s   - legato slide
 S   - shift slide
  - natural harmonic
[n]  - artificial harmonic
n(n) - tapped harmonic
 ~   - vibrato
 tr  - trill
 T   - tap
 PM  - palm muting
 x   - on rhythm slash represents muted slash
 o   - on rhythm slash represents single note slash

Misc Legend
-----------
 |  - bar

||  - double bar

||o - repeat start
                      3x 
o|| - repeat end     o|| - repeat three times   etc...
Comments