Our Lady Peace - Whatever Chords & Tabs

 

Whatever Chords & Tabs

Our Lady Peace Chords & Tabs

Version: 2 Type: Tab 0 ratings
1 star 2 stars 3 stars 4 stars 5 stars
comments

Whatever Tab

This is my first attempt at tabbing, so just bear with me.   It's an 
extremely easy song to pick up on.  Listen to the song and you'll be able
to figure it out.  E-mail me with any questions at:
Earthdrake75@adelphia.net
 

 Tuned One Step down.
(6) = natural harmonics
 /  = slide up


Main riff (Play it through and pick directly about the bridge pick-up)
pick-up
[ Tab from: http://www.guitartabs.cc/tabs/o/our_lady_peace/whatever_tab_ver_2.html ]
----------------------------------------------------------------------
----------------------------------------------------------------------
----------------------------------------------------------------------
----------------------------------------------------------------------
------------------------------------------------------------------(6)-
---0-0-0-0-(6)---0-0-0-0-(6)----------0-0-0-0-(6)---0-0-0-0-(6)-(6)-(6)


Chorus (repeat)
-------------------0------0-------------------------------------
-------------------0------0---------------------------------------
-------------------0------0-----------------------------------------
--5-5---5/7-7---2-2---2--2-----------------------------
--5-5---5/7-7---2-2---2--2---------------------------
--3-3---3/5-5---0-0---0--0------------------------------------
Comments