Our Lady Peace - Under Zenith Chords & Tabs

 

Under Zenith Chords & Tabs

Our Lady Peace Chords & Tabs

Version: 2 Type: Tab 0 ratings
1 star 2 stars 3 stars 4 stars 5 stars
comments

Under Zenith Tab

   
Band: Our Lady Peace
Song: Under Zenith
Album: Naveed


Tune 1/2 step down.

1 - eb
2 - Bb
3 - Gb
4 - Db
5 - Ab
6 - Eb

Bass 1:

Gb-|----------------------------------------------------------------|
Db-|-----2---4----------2---4-5-7-4------2---4----------2---4-5-4---|
Ab-|---2---2---5--5---2---2------------2---2---5--5---2---2-------5-|
Eb-|-0--------------0----------------0--------------0---------------|

fig 1:

eb-|------------------------------------------------------------------|
Bb-|-12---12-12-12/-13-/-17------12---12-12-12/-13-\-17-\-15-\-13-----|
Gb-|------------------------------------------------------------------|
Db-|-9----9--9--9-/-10-/-14------9----9--9--9-/-10-\-14-\-12-\-10-----|
Ab-|------------------------------------------------------------------|
Eb-|------------------------------------------------------------------|


fig 2:

eb-|----------------------------------------------------------------|
Bb-|-12---12-12-12/-13-/-17----------12---12-12-12/-13-\-10---------|
Gb-|----------------------------------------------------------------|
Db-|-9----9--9--9-/-10-/-14----------9----9--9--9-/-10-\-7----------|
Ab-|----------------------------------------------------------------|
Eb-|----------------------------------------------------------------|

fill 1:

eb-|-x-x-x-|
Bb-|-x-x-x-|
Gb-|-x-x-x-|
Db-|-x-x-x-|
Ab-|-x-x-x-|
eb-|-x-x-x-|

fig 3:

eb-|-14-|-15-|
Bb-|-12-|-13-|
Gb-|-11-|-12-|
Db-|----|----|
Ab-|----|----|
Eb-|----|----|

fig 4:

eb-|-----------------------------------------|
Bb-|-----------------------------------------|
Gb-|-----------------------------------------|
Db-|-2---------x-x-x-2---------3-3-3-3-3-3-3-|
Ab-|-2---------x-x-x-2---------3-3-3-3-3-3-3-|
Eb-|-0---------x-x-x-0---------1-1-1-1-1-1-1-|

fig 5:

eb-|---|---|---|
Bb-|---|---|---|
Gb-|-5-|-2-|---|
Db-|-5-|-2-|-2-|
Ab-|-3-|-0-|-2-|
Eb-|---|---|-0-|

fig 6: (not sure about this one)

eb-|--------------------------------------------|
Bb-|--------------------------------------------|
Gb-|-12-12-12-12-12-\-7-7-7-/-9-9-9-9-9-\-7-7-7-|
Db-|-9--9--9--9--9--\-5-5-5-/-7-7-7-7-7-\-5-5-5-|
Ab-|--------------------------------------------|
Eb-|--------------------------------------------|

fig 7:

eb-|-10-10-10-12-10-\-7-7-7-/-9--9--9--9--9--\-7-7-7-|
Bb-|-12-12-12-12-12-\-8-8-8-/-10-10-10-10-10-\-8-8-8-|
Gb-|-------------------------------------------------|
Db-|-------------------------------------------------|
Ab-|-------------------------------------------------|
Eb-|-------------------------------------------------|

fig 8:

eb-|-15-15-15-15-15-\-10-10-10-/-12-12-12-12-12-\-10-10-10-|
Bb-|-12-12-12-12-12-\-8--8--8--/-10-10-10-10-10-\-8--8--8--|
Gb-|-12-12-12-12-12-\-7--7--7--/-9--9--9--9--9--\-7--7--7--|
Db-|-------------------------------------------------------|
Ab-|-------------------------------------------------------|
Eb-|-------------------------------------------------------|


fig 9:

eb-|---|
Bb-|---|
Gb-|-5-|
Db-|-5-|
Ab-|-3-|
Eb-|---|


Now, putting it all together:

bass 1 + fig 1 
bass 1 + fig 2

Verse 1:

bass 1 + fig 1 - maybe they'll come back again.. maybe they're all gone.
bass 1 + fig 2 - one day you'll find me sending their message strong.
fill 1

Chorus:

fig 3 - under your feet the city falls
fig 3 - down so far the ground is sky
fig 3 - we're under zenith again,
fig 3 - it's healthy if not for long.

fig 4 x2
fig 5 - Leave a little room, for us to breathe

Verse 2:

bass 1 + fig 1 - much more than seven days and you've slipt to deep
bass 1 + fig 2 - much stronger than simpathy, let your best friend
                 pull back that leash
fill 1

Chorus:

fig 3 - sitting by a frozen man
fig 3 - someone somewhere has to cry
fig 3 - we're under zenith again
fig 3 - let that cycle run we won't die.

fig 4 x2
fig 5 - Leave a little room, for us to breathe

Bridge:

fig 6 x 2
fig 7 x 2

fig 8 - I love, I love how you let me fall.
fig 8 - under, under not too far.
fig 8 - I love, I love how you let me fall.
fig 8 - Only now I see where we are.

fig 8 - Hold Me
fig 8 - Hold Me
fig 8 - Hold Me
fig 8 - Hold Me

fig 9 - Leave a little room, for us to breathe

--------------------------------------------------------------------------------

By: David Harrison (blaze@interlog.com)
Song: "Under Zenith" by "Our Lady Peace"
Album: "Naveed"(1994)

Here's a song that I've never seen on the net. If you have any questions,
comments, corrections, or additions feel free to e-mail them to me.

Tuning: Down 1/2 A Step

[Intro]
E|----------------------------------------------------------------------
B|-------------------------17---------------------------------17-----15-
G|------------------16~/17----------------------------------------------
D|----------------------------------------------------------------------
A|-14-------------------------------14-----------------14~/15-----------
E|----------------------------------------------------------------------

E|----------------------------------------------------------------------
B|-------------------------17-------------------------------------13~~~\
G|------------------16~/17------------------------------------14--------
D|----------------------------------------------------------------------
A|-14---------------14~/15----------14-----------------14~/15-----------
E|----------------------------------------------------------------------

[ Tab from: http://www.guitartabs.cc/tabs/o/our_lady_peace/under_zenith_tab_ver_2.html ]
[Verse]
E|----------------------------------------------------------------------
B|-------------------------17---------------------------------17-----15-
G|------------------16~/17----------------------------------------------
D|----------------------------------------------------------------------
A|-14-------------------------------14-----------------14~/15-----------
E|----------------------------------------------------------------------

E|----------------------------------------------------------------------
B|-------------------------17--------------------------------------x-x-x
G|-16---------------16~/17------------------------------------14---x-x-x
D|-----------------------------------------------------------------x-x-x
A|----------------------------------14-----------------14~/15------x-x-x
E|----------------------------------------------------------------------


[Chorus]
Slide down from the last 17 the last time through!
E|-------------------------------------------------
B|-------------------------------------------------
G|-16-16-16-16-16-16-16-16-16-17-17-17-17-17-17-17-
D|-------------------------------------------------
A|-------------------------------------------------
E|-------------------------------------------------


[Post-Chorus]
E|-0-------------------------x-x-x-0-------------------------------
B|-0-------------------------x-x-x-0-------------------------------
G|-0-------------------------x-x-x-0-------------------------------
D|-2-------------------------x-x-x-2-----------------3-3-3-3-3-333-
A|-2-------------------------x-x-x-2-----------------3-3-3-3-3-333-
E|-0-------------------------x-x-x-0-----------------1-1-1-1-1-111-

E|-0-------------------------x-x-x-0-------------------------------
B|-0-------------------------x-x-x-0-------------------------------
G|-0-------------------------x-x-x-0-------------------------------
D|-2-------------------------x-x-x-2-----------------3-3-3-3-3-333-
A|-2-------------------------x-x-x-2-----------------3-3-3-3-3-333-
E|-0-------------------------x-x-x-0-----------------1-1-1-1-1-111-

E|-0-------------------------------0-------------------------------
B|-0-------------------------------0-------------------------------
G|-4-------------------------------2-------------------------------
D|-2-------------------------------2-------------------------------
A|-2-------------------------------2-------------------------------
E|-0-------------------------------0-------------------------------


[Fill 1]
E|-0-------------------------
B|-0-------------------------
G|-0-------------------------
D|-2-------------------------
A|-2-------------------------
E|-0-------------------------


[Solo]
E|----------------------------------------------------------------------
B|----------------------------------------------------------------------
G|----16---16---12~~~~/14-14---14---12~~~~----16---16---12-12-12-----14-
D|-14-------------------------------------/14---------------------------
A|---------------------------------------------------------------/16----
E|----------------------------------------------------------------------

E|----------------------------------------------------------------------
B|----------------------------------------------------------------------
G|-----\12----12--------16---16---12-12-12-----14------\12----12--------
D|------------------/14-------------------------------------------------
A|--16-----14----15------------------------/16------16-----14----15--/19
E|----------------------------------------------------------------------

E|----------------------------------------------------------------------
B|----------------------------------------------------------------------
G|-19-19-19-19\-----12-12-----18----18-----------------19-19-21-19---21-
D|----------------------------------------17-17-17----------------------
A|--------------/14-------/19----19----19----------/19------------------
E|----------------------------------------------------------------------

E|------------------------------
B|------------------------------
G|------------18------18----16\-
D|------------------------------
A|-19\-17~/19------19----17-----
E|------------------------------


[Outro]
   E5             G5          A5             G5
E|---------------------------------------------------
B|-12-12-12-12-12-13-13-13-13-10-10-10-10-10-8--8--8-
G|---------------------------------------------------
D|---------------------------------------------------
A|---------------------------------------------------
E|---------------------------------------------------


End song on "C"


[Chords]
    E5    G5    A5    C
E|-----|-----|-----|--8--|
B|-----|-----|-----|--8--|
G|-----|-----|-----|--9--|
D|--2--|--5--|--7--|-10--|
A|--2--|--5--|--7--|-10--|
E|--0--|--3--|--5--|--8--|


************************************************************************
* Note: You may have noticed that in the verse that the 16 on the "G"  *
*      string sounds the same as 14 on the "A" string only in a higher *
*      pitch. This is because the 16 is the same note as the 14 only   *
*      an octave higher. Throughout the different verses they change   *
*      between those two notes. But because they are the same note you * 
*      don't have to. My point is that the verse I have writen down    *
*      doesn't stay exactly the same but if you just stick with that   *
*      one it still sounds right because they're the same notes, just  *
*      an octave high or low.                                          *
************************************************************************
Comments