Our Lady Peace - Tomorrow Never Knows Chords & Tabs

 

Tomorrow Never Knows Chords & Tabs

Our Lady Peace Chords & Tabs

Version: 1 Type: Tab 0 ratings
1 star 2 stars 3 stars 4 stars 5 stars
comments

Tomorrow Never Knows Tab

Song: Tomorrow Never Knows
Band: Our Lady Peace
Album: The Craft Soundtrack
Tabbed by:  David Harrison (blaze@interlog.com)
Submitted by: KrazyKarateKid   ( krazykaratekid@email.com )
Tunning; Standard (EADGBe)

|--------------------------------------------------------------|
|**NOTE: The " means to tremelo pick. (pick as fast as you can)|
|--------------------------------------------------------------|

[Intro]-4x
e|------------------|
B|------------------|
G|-4----4--4--------|
D|-4----4--4--------|
A|-2----2--2--------|
E|------------------|

[Verse]
e|---------------------------------------------------------------|
B|---------------------------------------------------------------|
G|-4----4--4--------4----4--4--------4----4--4--------4----4--4--|
D|-4----4--4--------4----4--4--------4----4--4--------4----4--4--|
A|-2----2--2--------2----2--2--------2----2--2--------2----2--2--|
E|---------------------------------------------------------------|

e|---------------------------------------------------------------|
B|---------------------------------------------------------------|
G|-2----2--2--------2----2--2--------4----4--4--------4----4--4--|
D|-2----2--2--------2----2--2--------4----4--4--------4----4--4--|
A|-0----0--0--------0----0--0--------2----2--2--------2----2--2--|
E|---------------------------------------------------------------|


[Solo]
e|---------------------------------------------------------------------|
B|---------------------------------------------------------------------|
G|------4--------2-----2------------------------------------------2--4-|
D|-2----------------4----4p2--------------------------0-2-0-2-2/4------|
A|---------------------------2--------(2)/13\-------2------------------|
E|---------------------------------------------------------------------|

e|---------------------------7---------------7---------------7---------|
B|--3----5--5--5--5-------------5--5p4----------5--5p4----------5--5p4-|
G|------------------------4-------------4---------------4--------------|
D|---------------------------------------------------------------------|
A|---------------------------------------------------------------------|
E|---------------------------------------------------------------------|

e|--------------------------------------------------|
B|-5-5/7"---9"---10"-------16"-------17-17-17-17\12-|
G|--------------------------------------------------|
D|--------------------------------------------------|
A|--------------------------------------------------|
E|--------------------------------------------------|

[ Tab from: http://www.guitartabs.cc/tabs/o/our_lady_peace/tomorrow_never_knows_tab.html ]
[Interlude]
e|--0-------------------------------------------------------------|
B|--2-------------------------------------------------------------|
G|--2---------------------4---------------------6--4--------------|
D|--2----------------2--------------------------------------------|
A|--0--------------------------------------6----------6-----------|
E|----------------------------------------------------------------|

e|-----2----------------0-----------------------------------------|
B|-----4----------------2-----------------------------------------|
G|----4-----------------2-----------------------2-----------------|
D|---4------------------2-------------------2---------4-----------|
A|--2-------------------0----------------0------------------------|
E|----------------------------------------------------------------|

e|-2-------------------2----------------|
B|-4-------------------4----------------|
G|-4-------------------4----------------|
D|-4------------------4-----------------|
A|-2-----------------2------------------|
E|--------------------------------------|


[Outro]
e|---------------------------------------------------------------|
B|---------------------------------------------------------------|
G|-2----2--2--------2----2--2--------4----4--4--------4----4--4--|
D|-2----2--2--------2----2--2--------4----4--4--------4----4--4--|
A|-0----0--0--------0----0--0--------2----2--2--------2----2--2--|
E|---------------------------------------------------------------|


[End]
e|-----|-----|-----|-------2-----------(2)\-|
B|-----|-----|-----|-------4-----------(4)\-|
G|--2--|--4--|--2--|--4----4-----------(4)\-|
D|--2--|--4--|--2--|--4----4-----------(4)\-|
A|--0--|--2--|--0--|--2----2-----------(2)\-|
E|-----|-----|-----|------------------------|


Lyrics:

[Intro]
Listen to the caller of your dreams

Turn off your mind, relax and flow down stream
And it's not dying, it is not dying
Lay down across, surrender to the Void
And it is shining, it is shining
That you may see the meaning of within
Well it is being, it is being

[Solo]

Love is (?all there?), love is everyone,
And it is knowing, and it is knowing
Let ingnorance and hate may mourn the dead
And it is believing, it is believing
Oh play the game existance to the end
Of the begining, of the begining, of the begining, begining

Turn off your mind relax and flow down stream
It is not dying, it is not dying
Play the game existence to the end
Of the begining, of the begining, and of the beginging, of the begining
lay down across surrender to the void
Of the begining, of the begining, and of the beginging, of the begining...
check out; http://www.alsprograms.com
           http://deriol.cjb.com
           http://www.geocities.com/SunsetStrip/Palms/2101/ourlady.html
Comments