Our Lady Peace - Supermans Dead Chords & Tabs

 

Supermans Dead Chords & Tabs

Our Lady Peace Chords & Tabs

Version: 2 Type: Bass Tab 0 ratings
1 star 2 stars 3 stars 4 stars 5 stars
comments

Supermans Dead Bass Tab

   
Song: Superman's Dead
Artist: Our Lady Peace
Album: Clumsy
Tabbed by: L.A.

The existing tabs for this were sort of bare bones, so this is complete. 
However, Duncan Coutts (the bassist in OLP) apparently uses a 5 string as far 
as I can tell, so a few notes aren't tabbed as this is the 4string version. 
I denoted these notes as "(r)", for rest, because in the sections of the 
song where it comes, you barely hear the notes anyway so you can rest on 
them.

Verse 1 (doesn't come in until "fake", where the pickup is)
G|----|--------------------------------|--------------------------------|
D|----|--------------------------------|--------------------------------|
A|----|--------4-4-4-4-------2-2-2-2h4-|-1-1-1/4-4-4-4/66666666-2-2-2-2-|
E|-/7-|-6-6-6----------4-4-4-----------|--------------------------------|

"No-a-hoohoo"
G|----------------------------------------|
D|-------1-3=---------1-------1-----------|
A|-1h3-4------4-4-3-4-----3h4---2-2-1-2-2-|
E|----------------------4-----------------|

"Alone, alone, alone..." (played on the offbeats, i.e. "a-LONE")
G|---------------------|
D|---------------------|
A|------4-4-4--------2-|
E|-6--6-------4-4-4----|
[ Tab from: http://www.guitartabs.cc/tabs/o/our_lady_peace/supermans_dead_btab_ver_2.html ]
Chorus
G|------------------------|-------------------------|--------------------------|
D|------------------------|---------------------8-6-|----------------------4-3-|
A|-----4-4--------2-2-2-2-|-----4-4-----------------|-----4-4-------8-9--4-----|
E|-6-6-----4-4/16---------|-6-6-----4-4/16--6-6-----|-6-6-----4-4/16-----------|

|--------------------|
|--------------------|
|-----4-4--22222-----|
|-6-6-----------4444-|

After second chorus, play the "No-a-hoohoo" part 3 times, then:
G|------------------------------|-3-1---1-------|
D|-------1-3-3---------1------3-|-----3---3-1---|
A|-1h3-4-------4-4-3-4----3h4---|-------------4-|
E|----------------------4-------|---------------|

Interlude "Why-ei-ei-e-yeah,yeah..."	1			  2
G|------------------------------|-----------------------|---------------|
D|*----------------------------*|-----------------------|---------------|
A|*----------------------------*|-----------------------|---------------|
E|-2-2-2-2/11--1-1-1-1/9-0000/7-|-(rrrr)/11-11-11-11-11-|-(r)-9-11-9-11-|

"Subway" (fill)
G|-----------|
D|-----4p3h4-|
A|-(rr)------|
E|-----------|

Outro "Doesn't any, any, any..." (play "Subway" fill between each bar)
G|-/8---8-6-3-1-|----------|---------------|--------------|
D|----8---------|----------|---------------|------------6-|and repeat Subway
A|--------------|----------|-6-4-6-4-1-----|--------6-8---|fills until end
E|--------------|-/666-4-2-|-----------4-2-|-/4-6-6-------|

There ya'are. Questions, comments, requests (so long as they're OLP, 
Incubus, Live, Smashing Pumpkins, Bush, or maybe some others that AREN'T 
Korn and the like), email dumbassLA@users.basstabarchive.com
Comments