Our Lady Peace - Somewhere Out There Chords & Tabs

 

Somewhere Out There Chords & Tabs

Our Lady Peace Chords & Tabs

Version: 3 Type: Tab 0 ratings
1 star 2 stars 3 stars 4 stars 5 stars
comments

Somewhere Out There Tab

   
Artist - Our Lady Peace
Song - Somewhere Out There
Album - Gravity

Great new song by Our Lady Peace.  Whole new album is awesome.
This is my frist time posting a tab, but I think I did this one ok.
Let me know any changes -- J4MAN83@cs.com

Tuning: 1/2 step down (Eb Ab Db Gb Bb Eb)

Intro/Main riff during chorus

eb--------------\     |-----------
Bb-------------- \    |-----------
Gb--7--6--9--7--  \   |--4--4--7--
Db--------------  /3X |-----------
Ab-------------- /    |-----------
Eb--------------/     |-----------

Verse:

    D5 *E5 Em  G5   (chord forms)
eb----|---|---|-----
Bb----|---|---|-----
Gb--7-|-9-|---|-----
Db--7-|-9-|-2-|-5---
Ab--5-|-7-|-2-|-5---
Eb----|---|-0-|-3---

*Not 100% sure about E5, but it sounds ok to me.

Pre-chorus:

eb-----\
Bb----- \
Gb--4--  \
Db--4--  / 2X
Ab--2-- /
Eb-----/

Chorus:
[ Tab from: http://www.guitartabs.cc/tabs/o/our_lady_peace/somewhere_out_there_tab_ver_3.html ]
	Riff
eb--------------\      |--------
Bb-------------- \     |--------
Gb--7--6--9--7--  \    |--4--7--
Db--------------  / 3X |--------
Ab--5--4--7--5-- /     |--2--5--
Eb--------------/      |--------
*Rythem not shown...play around with it.
*Does not have to be played as octaves, but it sounds good.
* (FYI) Same part played by the string section at the end.

	Chords
eb----|---|---|-------
Bb----|---|---|-------
Gb--7-|-9-|---|-4--7--
Db--7-|-9-|-2-|-4--7--
Ab--5-|-7-|-2-|-2--5--
Eb----|---|-0-|-------

Solo:

	Chords
eb----|----
Bb----|----
Gb--4-|-7--
Db--4-|-7--
Ab--2-|-5--
Eb----|----
*Not sure on the actual solo yet

Soft Part:

eb--------------\     |----|----
Bb-------------- \    |----|----
Gb--7--6--9--7--  \   |--4-|-7--
Db--------------  /7X |--4-|-7--
Ab-------------- /    |--2-|-5--
Eb--------------/     |----|----
		      *Distortion here, played once each

*Repeat chorus 4 times

End on:

eb-----
Bb-----
Gb--4--
Db--4--
Ab--2--
Eb-----
Comments