Our Lady Peace - Somewhere Out There Chords & Tabs

 

Somewhere Out There Chords & Tabs

Our Lady Peace Chords & Tabs

Version: 2 Type: Tab 0 ratings
1 star 2 stars 3 stars 4 stars 5 stars
comments

Somewhere Out There Tab

   
"Somewhere Out There"
Our Lady Peace
Gravity

Tuning - Eb,Ab,Db,Gb,Bb,Eb 

If you're good enough, mute the high e string for the entire song.

riff 1
eb------------------------------------------------------------------------------
Bb--3--2--5--3----3--3------3--2--5--3----3--3------3--2--5--3----3--3------3---
Gb--2--2--2--2----2--2------x--x--x--x----x--x------2--2--2--2----2--2------0---
Db--0-----------------------2--2--2--2----2--2------x-----------------------2---
Ab--------------------------0-----------------------x-----------------------2---
Eb--------------------------------------------------3-----------------------0---

eb---------------------------|
Bb--3---3---3----3--3---3----|
Gb--0---0---0----0--0---0----|
Db--2---2---0----0--0---0----|
Ab--2---2---2----2--2---2----|
Eb--0---0---3----3--3---3----|
[ Tab from: http://www.guitartabs.cc/tabs/o/our_lady_peace/somewhere_out_there_tab_ver_2.html ]
riff 2 - strumming
eb----------------|
Bb--3--3--3--3----|
Gb--2--2--0--2----|
Db--0--x--2--x----|
Ab-----x--2--x----|
Eb-----3--0--3----|

riff 3A
eb------------------------------|      |--------5--------------5------|
Bb------------------------------|      |--2--3--------3--2--3---------|
Gb--------2--------------2------|  or  |------------------------------|
Db-----0--------0-----0---------|      |------------------------------|
Ab--4--------------4------------|      |------------------------------|
Eb--0-----0--------3-----3------|      |--0-----0--------3-----3------|

riff 3B - strumming
eb----------|
Bb--3--3----|
Gb--0--0----|
Db--2--0----|
Ab--2--2----|
Eb--0--3----|

Someone else can figure out the bridge solo.

Song Structure

Intro
	riff 1
Verse 1
	riff 2 4x
	riff 3A
Fill
	riff 1
Verse 2
	riff 2 4x
	riff 3B
Chorus
	riff 1 2x
Verse 3
	riff 2 4x
	riff 3B
Chorus
Bridge
	riff 3B
Chorus (soft)
Chorus 2x

- staind_d@hotmail.com
Comments