Our Lady Peace - Sell My Soul Chords & Tabs

 

Sell My Soul Chords & Tabs

Our Lady Peace Chords & Tabs

Version: 2 Type: Tab 0 ratings
1 star 2 stars 3 stars 4 stars 5 stars
comments

Sell My Soul Tab

   
Title: Sell My Soul
Artist: Our Lady Peace
Album: Gravity

Tuning: standard (which is unusual for Our Lady Peace, 
unless I got it wrong...)

I tried to make this as accurate as possible, but the strumming
pattern in the chorus might be a bit off. Oh well. Also note that four
dashes = 1 beat, and in certain places some adjustment was needed
because the numbers didn't fit. Hope you enjoy!

INTRO/PRE-VERSE
  Bm                                      D        Bm
e|----------------|----------------|------------ ----|----------------|
B|----------------|----------------|--------2h3p2----|----------------|
G|----------------|----------------|------2----- 2---|--------2-------|
D|--------4b5b4---|----4b5b4-------|----4------- --4-|------4-----4---|
A|2-----2-------2-|--2-------------|2----------- ----|--2-------------|
E|----------------|----------------|------------ ----|----------------|


VERSE x4
  Bm                                D                  Bm
e|----------------|----------------|----------------|----------------|
B|----------------|----------------|----------------|----------------|
G|----------------|----------------|7-------7---7-7-|--4-4---4-------|
D|--------4b5b4---|----4b5b4-------|7-------7---7-7-|--4-4---4-------|
A|2-----2-------2-|--2-------------|5-------5---5-5-|--2-2---2-------|
E|----------------|----------------|----------------|----------------|


CHORUS
  D             Dsus2               A
e|--------------0-|----0-----------|0-------0-------|----0-----------|
B|3-------3-----3-|----3-----------|2-------2-------|----2-----------|
G|2-------2-----2-|----2-----------|2-------2-------|----2-----------|
D|4-------4-----4-|----4-----------|2-------2-------|----2-----------|
A|5-------5-----5-|----5-----------|0-------0-------|----0-----------|
E|----------------|----------------|----------------|----------------|

  G                Em               D             Dsus2
e|----------------|----------------|--------------0-|----0-----------|
B|3-------3-------|0---0---0---0---|3-------3-----3-|----3-----------|
G|0-------0-------|0---0---0---0---|2-------2-----2-|----2-----------|
D|0-------0-------|2---2---2---2---|4-------4-----4-|----4-----------|
A|2-------2-------|2---2---2---2---|5-------5-----5-|----5-----------|
E|3-------3-------|0---0---0---0---|----------------|----------------|

  A                                 G                Em
e|0-------0-------|----0-----------|----------------|----------------|
B|2-------2-------|----2-----------|3-------3-------|0---0---0---0---|
G|2-------2-------|----2-----------|0-------0-------|0---0---0---0---|
D|2-------2-------|----2-----------|0-------0-------|2---2---2---2---|
A|0-------0-------|----0-----------|2-------2-------|2---2---2---2---|
E|----------------|----------------|3-------3-------|0---0---0---0---|


CHORUS MELODY
  D                                 A
e|----------------|----------------|----------------|----------------|
B|10------10----10|--------10------|10------10----10|--------10------|
G|----7-------7---|----7-------7---|----9-------9---|----9-------9---|
D|----------------|----------------|----------------|----------------|
A|----------------|----------------|----------------|----------------|
E|----------------|----------------|----------------|----------------|
[ Tab from: http://www.guitartabs.cc/tabs/o/our_lady_peace/sell_my_soul_tab_ver_2.html ]
  D                                 A
e|----------------|--7-------------|----------------|----------------|
B|10------10----10|10--7---8-7-----|10----------10--|----------------|
G|----7-------7---|------------9-7-|------9---------|----------------|
D|----------------|----------------|----------------|----------------|
A|----------------|----------------|----------------|----------------|
E|----------------|----------------|----------------|----------------|

  G                                 Em
e|----------------|----------------|----------------|----------------|
B|------10--------|----------------|----10----------|----------------|
G|9p7-9-------9---|--------------7-|7h11--11--------|--------------11|
D|----------------|----------------|----------------|----------------|
A|----------------|----------------|----------------|----------------|
E|----------------|----------------|----------------|----------------|

  A                                  G
e|-- --------------|----------9-----|10----------10--|--------10------|
B|-- --------------|----------------|------8---------|------8---8-8-8-|
G|11 9-------------|----------------|----------------|----------------|
D|-- --------------|----------------|----------------|----------------|
A|-- --------------|----------------|----------------|----------------|
E|-- --------------|----------------|----------------|----------------|

  Em                                A
e|10--------------|--10----10------|----------------|----------9-----|
B|------7-------7-|------7---7-7-7-|10----------12--|----10--10------|
G|------------9---|----------------|------9---------|----------------|
D|----------------|----------------|----------------|----------------|
A|----------------|----------------|----------------|----------------|
E|----------------|----------------|----------------|----------------|

e|10--------------|----------------|----------------|----------------|
B|----------------|----------------|----------------|----------------|
G|----------------|----------------|----------------|----------------|
D|----------------|----------------|----------------|----------------|
A|----------------|----------------|----------------|----------------|
E|----------------|----------------|----------------|----------------|


INTRO
VERSE
Bm
How do you feel?
Bm
How do you hate?
           D                Bm
How do you wake up with the smile that's on your face?
Bm
Out on the moon
            D               Bm
If I was an astronaut could I get back to you?
Bm
I'm out of my head
           D              Bm
I'm out of excuses so I'm staring at the bed
Bm
And it's you
Bm
It's you...

CHORUS
D                   A
I hold on, I hold on
A
(I can't let go)
G                 Em
And you don't know how I feel
D                 A
Hold on, I hold on
A
(I'd sell my soul)
G                 Em
And you don't know how I feel

PRE-VERSE
VERSE
Losing my heart
Losing my pride
I'd burn our initials in the sun if it would shine
I need a fresh start
I was in heaven until this one fell apart
Out on the run
Out on this empty space since all of this begun
I try
I try...

CHORUS
I hold on, I hold on
(I can't let go)
And you don't know how I feel
Hold on, I hold on
(I'd sell my soul)
And you don't know how I feel

Hold on, hold on
(I can't let go...)
And you don't how I feel

CHORUS + CHORUS MELODY
And nothing seems to help
And nothing seems to work
And nothing isn't beautiful
I'm old enough to take all the blame for all of us
There's all the games and all the faces
I'm bleeding by myself and I'm okay...

Hold on, I hold on
(I can't let go)
And you don't know how I feel
Hold on, I hold on
(I'd sell my soul)
And you don't know how I feel

Hold on, I hold on
(I can't let go)
And you don't know how I feel
I hold on
(I can't let go...)
And you don't know how I feel
Comments