Our Lady Peace - Sell My Soul Chords & Tabs

 

Sell My Soul Chords & Tabs

Our Lady Peace Chords & Tabs

Version: 1 Type: Tab 0 ratings
1 star 2 stars 3 stars 4 stars 5 stars
comments

Sell My Soul Tab

Our Lady Peace 
Sell My Soul 
Tabbed By: Andy Picker 
Tuning: Drop a half step 
www.ourladypeace.cc

Guitar 1 

E|-------------------------------------------------------| 
B|------------------------------------3h4p3---------3----| 
G|----------------------------------5---------3-------3--| 
D|--------------------------------5---------5---5-5------| 
A|--------7b---5b-------7b---5b-3------------------------| 
E|--5-5-5----3----5-5-5----3-----------------------------| 

Guitar 2 

E|------------| 
B|------------| 
G|------------| 
D|-6-6-6\3-3--| 
A|-6-6-6\3-3--| 
E|-4-4-4\1-1--| 

Chorus 
Guitar 1 
Im not completely sure about this part 
E|-------------| 
B|----3--------| 
G|----2--------| 
D|--4-0-6-6\3--| 
A|--4-0-6-6\3--| 
E|--2---4-4\1--| 

Guitar 2 
Fill throughout chorus 
[ Tab from: http://www.guitartabs.cc/tabs/o/our_lady_peace/sell_my_soul_tab.html ]
E|----------------------------| 
B|----------------------------| 
G|---15h17-15\12-12h14-12-----| 
D|------------------------13--| 
A|----------------------------| 
E|----------------------------| 

Play around with 13s, 15s, and 17s its played inthere 
“I’m old enough to take all the blame…” 
E|--------------------------------------------------------| 
B|--------------------------------------------------------| 
G|-----15-----15-----17----17----15-18-20-----20----20----| 
D|--13-----15-----15----17----13-----------18----18----18-| 
A|--------------------------------------------------------| 
E|--------------------------------------------------------| 


E|-------------------------------------------| 
B|-------------------------------------------| 
G|--20----20----20-----20----20----18---20v--| 
D|-----17----17----17-----16----16---16------| 
A|-------------------------------------------| 
E|-------------------------------------------|
Comments