Our Lady Peace - One Man Army Chords & Tabs

 

One Man Army Chords & Tabs

Our Lady Peace Chords & Tabs

Version: 2 Type: Tab 0 ratings
1 star 2 stars 3 stars 4 stars 5 stars
comments

One Man Army Tab

#----------------------------------PLEASE NOTE--------------------------------# 
 #This file is the author's own work and represents their interpretation of the# 
 #song. You may only use this file for private study, scholarship, or research.# 
 #-----------------------------------------------------------------------------# 

 ONE MAN ARMY - Our Lady Peace 
 Album: Happiness... Is Not a Fish You Can Catch. 

 This song was tabbed by: Gordon Huntley. 

 This is one of my new favorite songs and I NEED to learn how to play it. I've 
 figured it out most but I know it's not perfect. If you have ANY suggestions, 
 e-mail me at: semikorny_boy@hotmail.com 
 Enjoy! 

 Intro: (save me from the space) 
 e|------------------------- 
 B|------------------------- 
 G|--7/1\7/1\7/1\7 etc etc-- 
 D|------------------------- 
 A|------------------------- 
 E|------------------------- 

 Verses: 

 play below chord throughout verse and near end switch to riff at the end. 
 e|------ | --------------------------- 
 B|------ | --------------------------- 
 G|--11-- | --------------------------- 
 D|--10-- | --------------------------- 
 A|---8-- | -7-7--7-7--7-7--7-7-7-7-7-- 
 E|---9-- | -0-0--0-0--0-0--0-0-0-0-0-- 


 Pre Chorus and after chorus 1: 
 e|--x-x-x---x--x--x--x---x-- 
 B|--x-x-x---x--x--x--x---x-- 
 G|--x-x-x---x--x--x--x---x-- 
 D|--x-x-x---x--x--x--x---x-- 
 A|--x-x-x---x--x--x--x---x-- 
 E|--9-4-1---7/-x--x--7/--5-- 
[ Tab from: http://www.guitartabs.cc/tabs/o/our_lady_peace/one_man_army_tab_ver_2.html ]
 Chorus: 
 play these four chord repeated. 
 e|--0----0----0----0---- 
 B|--0----0----3----3---- 
 G|--2----0----0----2---- 
 D|--3----2----0----0---- 
 A|--3----2----0----0---- 
 E|--1----0----3----0---- 

 Riff1 
 This riff is in the end of the second chorus. 
 e|--x--x-x--x-x--x-x--x-x-x-x-x-- 
 B|--x--x-x--x-x--x-x--x-x-x-x-x-- 
 G|--x--x-x--x-x--x-x--x-x-x-x-x-- 
 D|--x--x-x--x-x--x-x--x-x-x-x-x-- 
 A|--x--x-x--x-x--x-x--x-x-x-x-x-- 
 E|--9-11-9-11-9-11-9-11-x-x-x-x-- 

 Solo: 
 It isn't complete and 100% accurate but PLEASE e-mail me with corrections. 
 e|------------------------------------------------------------------------------ 
 B|------------------------------------------------------------------------------ 
 G|--------------------------- there is some stuff played here i am not sure of-- 
 D|------------------------------------------------------------------------------ 
 A|------------------------------------------------------------------------------ 
 E|--1-1-1-1-1-1-1-0--0-0--0-0--------------------------------------------------- 

 |this section is played many times| 
 e|------8---------8---------------------------------------------------------------x-x--x-x--
 B|--5/7---7---7-------7-----------------------------------------------------------x-x--x-x--
 G|----------5---5---5---5--5/7\5--------------------------------------------------x-x--x-x--
 D|--------------------------------------------------------------------------------x-x--x-x--
 A|----------------------------------7-7-7-7--7-7-7-7--7-7-7-----------------------x-x--x-x--
 E|----------------------------------0-0-0-8--0-0-0-8--0-0-0--9-11-9-11-9-11-9-11--x-x--x-x--



 PLEASE PLEASE PLEASE PLEASE send me ANY suggestions!! I really want to 
 know how to play this song even if I figure it out all by myself or not!! 
 Send me ANYTHING!! 
 semikorny_boy@hotmail.com 
Comments