Our Lady Peace - One Man Army Chords & Tabs

 

One Man Army Chords & Tabs

Our Lady Peace Chords & Tabs

Version: 3 Type: Bass Tab 0 ratings
1 star 2 stars 3 stars 4 stars 5 stars
comments

One Man Army Bass Tab

   
this is a kick ass song woth some even more kick ass basslines and a wicked guitar solo.

tuning-half step down-Eb Ab Db Gb

verse

1-------------------------------------------|
2-------------------------------------------|
3-------------------------------------------|
4-5555555555555555-3333333333333333---------|

1---------------------------------------------|
2---------------------------------------------|
3-3333333333333333-555555555-12-11---12-11----|
4---------------------------------10------10--|

pre chorus

1-------------------------------------------|
2-------------------------------------------|
3-------------------------------------------|
4-555-55-555-3--555-55-555-3----------------|

Chorus 1 (just the first chorus)

1-------------------------------------------|
2-------------------------------------------|
3---------33333330--------55555550----------|
4-11111111--------33333333------------------|

chorus

1-------------------------------------------|
2-------------------------------------------|
3---------33333330--------55555550----------|
4-11111111--------33333333------------------|
[ Tab from: http://www.guitartabs.cc/tabs/o/our_lady_peace/one_man_army_btab_ver_3.html ]
1-------------------------------------------|
2-------------------------------------------|
3---------33333330-----3-4-5-3-4-5-3-5------|
4-11111111--------33333---------------------|

1-------------------------------------------|
2-------------------------------------------|
3-88-77-5-3-2-3-3333-22-0---------55555550--|
4-------------------------33333333----------|

1-------------------------------------------|
2-------------------------------------------|
3---------33333330--------------------------| break into pre bridge
4-11111111----------------------------------|

pre bridge

1-57-57-57-57-57--57-57-57-57-57------------|
2-------------------------------------------|
3-------------------------------------------|
4-------------------------------------------|

bridge

1-------------------------------------------|
2-------------------------------------------|
3------------------33333333-55555555--------|
4-55555555-33333333-------------------------|

1-------------------------------------------|
2-------------------------------------------|
3------------------333333333-55555555-------|
4-55555555-33333333-------------------------|

1-------------------{5-7(x20)}--------------|
2-------------------------------------------|
3-------------------------------------------|
4-55555555-33333333-------------------------|

continue the chorus til the end of the song, for questions, e-mail me at horny_devil183@hotmail.com
Comments