Our Lady Peace - One Man Army Chords & Tabs

 

One Man Army Chords & Tabs

Our Lady Peace Chords & Tabs

Version: 2 Type: Bass Tab 0 ratings
1 star 2 stars 3 stars 4 stars 5 stars
comments

One Man Army Bass Tab

   
Song: One Man Army
Artist: Our Lady Peace
Album: Happiness... Is Not a Fish You Can Catch
Tabbed by: L.A.

I can't figure out how to name these notes (times I mean) so I've just added 
some textual notations here and there. It generally goes fast tho, so I'm 
not sure of the exact note frequency in the first verse w/ the multiples 
there. Nevermind, listen to the song and you'll get it. Enjoy!

Verse
G|-------------------------------------------------------------------------------|
D|-------------------------------------------------------------------------------|
A|-----------------------------------------------------------------11-9-2-11-9-2-|
E|-1/4-4444444444--2222222222-1h2-22--7777777777--6h7-77--4-2-9999---------------|

Prechorus ("twitch...")
G|--------|--------|
D|-5-----*|--------|
A|---5---*|/10(x8)-|
E|-----4--|--------|
  triplet
[ Tab from: http://www.guitartabs.cc/tabs/o/our_lady_peace/one_man_army_btab_ver_2.html ]
Chorus riff A  				       riff B			 "thru the blaze"
G|----------------------------------------|---------------------------------------|
D|-------------------------------------10-|---------------------------------------|
A|----------------------------------------|---------------------------------------|
E|-00000000--77777777--22222222--99999----|-00000000--77777777--22222222--999-999-|
  riff C									  triplets
G|-----------------------------|-------4------------|
D|-----------------------------|--------------------|
A|------------------------11-9-|---------666666h8---|play prechorus triplet then 
E|-00-22-44-66-77-99-11-11-----|-44444------------7=|verse
					  "for your lies"
									  |---5---5---5h6-|
							fill in 2nd verse |-5---5---5-----|
									  |---------------|
									  |---------------|
2nd Chorus (play riff A then..)            riff D
G|---------------------------------------|-77-66-22-1h222-1-00-2----------------|
D|---------------------------------------|-----------------------------------10-|
A|---------------------------------------|-----------------------99999----------|
E|-00000000--77777777--22222--7h8h9-9999-|-----------------------------99999----|
  "for your lies"
G|---------|
D|---------|
A|---------|
E|-00000-7-|

Guitar Solo
G|-----------------------------------------------------------------------------|
D|-----------------------------------------------------------------------------|
A|-----------------------------------------------------------------------------|
E|-11\444444-22222--77777h9-7--111111-0-111-0-1--444444-6--22222p1h22--77777-9-|

G|--------------------------------------|---------------------|
D|--------------------------------------|*------------10(x8)-*|
A|--------------------------------------|*-------------------*|
E|-13-13-12-13-13-13--44444-6-2222p1h22-|-7h9-7h9-7h9---------|

repeat 2nd chorus up to riff D twice, then riff D, then riff C (including 
"for your lies" up to the part where you play G-4) and you're done.

This really is a great song, and I have everything here only it's sorta 
confusing. so if you need any clarification listen to the song first, or 
email me at dumbassLA@users.basstabarchive.com or L_A_H@hotmail.com. Any 
other questions or comments or requests can go there too. Later.
Comments