Our Lady Peace - Not Enough Chords & Tabs

 

Not Enough Chords & Tabs

Our Lady Peace Chords & Tabs

Version: 8 Type: Tab 0 ratings
1 star 2 stars 3 stars 4 stars 5 stars
comments

Not Enough Tab

Not Enough - Our Lady Peace
1/2 Step Down & Drop D Tuning
Tabbed By YoYoJoe

Intro
|------------------1--------------------|
|-----6--\-----1----------8-----------3-|
|------------------------------9--------|
|---7--------3---3-----10---10------5---| X2
|-5--------1---------8-----------3------|
|---------------------------------------|

Verse 1
|------------------------1--------------------------|
|-------6------\-----1----------8------------3x-3-3-|
|-----7---7-----------------------9----------5x-5-5-|
|---7-------7------3---3-----10-----10-10\-5-5x-5-5-|
|-5--------------1---------8---------------3-3x-3-3-|
|---------------------------------------------------|

|------------------------1------------------------|
|-------6------------1-----------8-x-8-------3x-3-|
|-----7---7----------------------9-x-9-------5x-5-|
|---7-------7-7\---3---3---15\10-10x-10-10\5-5x-5-|
|-5--------------1---------15\8--8-x-8--8\-3-3x-3-|
|-------------------------------------------------|

Chorus
|-------------------------------------------------------------|
|----------3--3-3-3-1--1-1--1-1-1---------------3--3-3--3-3-3-|
|----------2--2-2-2-3--3-3--3-3-3------5--5-5-5-5--5-5--5-5-5-|
|-0-0-0--0-0--0-0-0-3--3-3--3-3-3-3--3-5--5-5-5-5--5-5--5-5-5-| X2
|-0-0-0--0-0--0-0-0-1--1-1--1-1-1-3--3-3--3-3-3-3--3-3--3-3-3-|
|-0-0-0--0-0--0-0-0---------------3--3-3--3-3-3---------------|
PM___

Interlude
|-----------------------1------------------------|
|-----6-5-5h6p5\----1----------8-----------3-----|
|-----------------------------------9--------5---|
|---7-------------3---3-----10---10------5-----5-|
|-5-------------1---------8-----------3----------|
|------------------------------------------------|

Verse 2
|------------------------1-----------------------------|
|-------6------------1---------8-x-8---------------3---|
|-----7---7--------------------9-x-9--9-9h10p9--9\---5-|
|---7-------7-7\---3---3----10-10x-10------------------|
|-5--------------1----------8--8-x-8-------------------|
|------------------------------------------------------|

|------------------------1------------------------|
|-------6------------1-----------8-x-8-------3x-3-|
|-----7---7----------------------9-x-9-------5x-5-|
|---7-------7-7\---3---3---15\10-10x-10-10\5-5x-5-|
|-5--------------1---------15\8--8-x-8--8\-3-3x-3-|
|-------------------------------------------------|
[ Tab from: http://www.guitartabs.cc/tabs/o/our_lady_peace/not_enough_tab_ver_8.html ]
Verse 3
|-------------|
|-------------|
|-------------|
|-0-0-x-000-x-|
|-0-0-x-000-x-|
|-0-0-x-000-x-|

Solo (Chorus played in background
|------------------------------------------------------------------------|
|------------------------------------------------------------------------|
|------------------------------------------------------------------------|
|-------12~-12~-14hb-r------------14hb-r---------------12hb------14------|
|-12-15----------------15\13~-13~--------15\12~-12~---------15-15--15-15-|
|---------------------------------------------------15-------------------|

|----------------------------------------------------------------|
|----------------------------------------------------------------|
|----------------------------------------------------------------|
|-------12~-12~-14hb-r------------14hb-r-------------------------|
|-12-15----------------15\13~-13~--------15\12~-12~----15-15hb-r-|
|---------------------------------------------------15-----------|

|---------------|
|---------------|
|-12~-12~--12fb-|
|---------------|
|---------------|
|---------------|

Outro
|--------------------------------------------------------------------------|
|--------------------------------------------------------------------------|
|--------------------------------------------------------------------------|
|14h15-14-14h15-14-14h15-14-14h15-14-15hb-r-14h15-14-14h15-14-14h15-14\12--|
|------------------------------------------------------------------------15|
|--------------------------------------------------------------------------|

|-------------------------------------------------------------------------|
|-----------------------13--------------15--------------15----15----15----|
|------------------12fb----r----------------------------------------------|
|-14-15-14-15-14-15-----------15fb-r-14----14-15fb-r-14----14----14----14-|
|-------------------------------------------------------------------------|
|-------------------------------------------------------------------------|

|-13-13-13-12------------------------------------|
|-------------15-13------------------------------|
|--------------------14--12----------------------|
|----------------------------14--12--------------|
|------------------------------------13/15\12~~~-|
|------------------------------------------------|

Rhythem Ends with:
|-------|
|-------|
|-------|
|-0-0-0-|
|-0-0-0-|
|-0-0-0-|
PM___
Comments