Our Lady Peace - Not Enough Chords & Tabs

 

Not Enough Chords & Tabs

Our Lady Peace Chords & Tabs

Version: 5 Type: Tab 0 ratings
1 star 2 stars 3 stars 4 stars 5 stars
comments

Not Enough Tab

--------------------------------------------------------------------------------
                           NOT ENOUGH-Our Lady Peace
--------------------------------------------------------------------------------

Tabbed by: Paul Rollins
Email:p_rollins@hotmail.com

K, for anyone that knows Our Lady Peace, they tune their guitar down, but this
song is good for normal tuning too. I've got everything except for the guitar
solo, but that's pretty easy if you just listen to it. Listen to the song for all
the timing. If you have problems write me, but this is my first tab, so don't be
too harsh.

Tuning: Standard

Play twice:
e|------------|-----------0----|-------2-------|------------|
B|-------5----|------0---------|----------0--4-|-------2----|
G|------------|---------2------|----1----------|------------|
D|----6-------|----2-----------|-2-------------|----1--4----|
A|-4----------|-0--------------|---------------|-2----------|
E|------------|----------------|---------------|------------|

First Verse:
e|---------------|-------0----|-----2-0-------|------------------|
B|-------5-------|-------0----|---------0---5\|-----2---2--------|
G|----------6----|-------2----|---1---------4\|-----4---4----4--4|
D|-4/6--------6--|----2-------|-2-------------|-------4------4--4|
A|-2/4-----------|-0----------|---------------|-2------------2--2|
E|---------------|------------|---------------|------------------|
[ Tab from: http://www.guitartabs.cc/tabs/o/our_lady_peace/not_enough_tab_ver_5.html ]
e|-----------------|-----------0---0--|-7--7-7x7x--7--7--|-2--2-2x2x--2--------|
B|------5--------5\|-------0-------0--|-7--7-7x7x--7--7--|-2--2-2x2x--2--------|
G|4/6------6-----6\|---------2-----2--|-9--9-9x9x--9--9--|-4--4-4x4x--4-----4--|
D|4/6--------6-----|----2-------------|-9--9-9x9x--9--9--|-4--4-4x4x--4--6--4--|
A|2/4--------------|-0----------------|-7--7-7x7x--7--7--|-2--2-2x2x--4--6--2--|
E|-----------------|------------------|------------------|---------------4-----|
         
Chorus:There's too much distortion to hear a strum pattern, so just make one up,
here are the chords. Play it twice
e|-------|-------|-------|-------------|
B|-------|-------|-------|-------------|
G|--6----|--2----|--1----|--4--------4-|
D|--6----|--2----|--2----|--4----*6--4-|
A|--4----|--0----|--2----|--2-----6--2-|
E|-------|-------|--0----|--------4----|   *First time only

Lead into verse:
e|---------------------|------------0--|-------2--------|----------------|
B|-------5----4h5p4----|------0--------|----------0--4--|-------2--0-----|
G|------------------6\-|--------2------|----1-----------|-------------2--|
D|----6-----6----------|----2----------|-2--------------|----1--4--------|
A|-4-------------------|-0-------------|----------------|-2--------------|
E|---------------------|---------------|----------------|----------------|

Last Verse:
e|----------|----------0--|-7--7-7x7x-7---|----------------------|
B|-----5----|-----0-------|-7--7-7x7x-7---|----------------------|
G|-------6--|-------2--2--|-9--9-9x9x-9--9|-9\8--8\4--4--4/6--4--|
D|-4/6------|---2---------|-9--9-9x9x-9---|------9\4--4--4/6--4--|
A|-2/4------|-0-----------|-7--7-7x9x-7---|--------------2/4--2--|
E|----------|-------------|---------------|----------------------|

e|-----------------|----------0--|-7--7-7x7x-7--7--|-2--2-2x2x-2----------|
B|------5--------5\|-----0-------|-7--7-7x7x-7--7--|-2--2-2x2x-2----------|
G|-4/6----4h6----6\|-------2--2--|-9--9-9x9x-9--9--|-4--4-4x4x-4-------4--|
D|-4/6--------6----|---2---------|-9--9-9x9x-9--9--|-4--4-4x4x-4---6---4--|
A|-2/4-------------|-0-----------|-7--7-7x7x-7--7--|-2--2-2x4x-2---6---2--|
E|-----------------|-------------|-----------------|---------------4------|

Play Chorus again

The bridge is just one chord the whole time...eBGDAE                 
                                              xx442x
Comments