Our Lady Peace - Not Enough Chords & Tabs

 

Not Enough Chords & Tabs

Our Lady Peace Chords & Tabs

Version: 4 Type: Tab 0 ratings
1 star 2 stars 3 stars 4 stars 5 stars
comments

Not Enough Tab

   
#----------------------------------PLEASE NOTE----------------------------------#
# This file is the author's own work and represents their interpretation of the #
# song. You may only use this file for private study, scholarship, or research. #
#-------------------------------------------------------------------------------#

Artist:    Our Lady Peace
Song:      Not Enough
Album:     Gravity
Tabbed By: Angus Jones 

=================================================
The song is in standard tuning and revolves around a C#m Aadd9 Eadd9 B 
progression

C#m (x46654)   C#5 (x466xx)
Aadd9 (x02420) A5 (x022xx) A5(add9?) (x024xx)
Eadd9 (022102) E5 (022xxx) E5(add9?) (024xxx)
B (x24442) B5 (x244xx)



Intro
  {Let Ring} C#m	Aadd9		 Eadd9		B
e|----------------------------------0----------2-----------------------------| x2
B|--------5\--------------------------------------0-----4--------------------|
G|----------------------------4-----------------------------------4--4\------|
D|-----6-------------------2-----2-----------------------------4-----4\------|
A|--4-------------------0-------------------2---------------2--------2\------|
E|---------------------------------------0-----------------------------------|

The new guy (john? jeremy? steven?) just messes around with these chords for the 
remainder of the song. Some of these parts may be wrong, but this is how
they sound to me.

Verse 1
e|---------------------------------0------------2----------------------------|
B|-----------5-------------------------------------0-------------------------|
G|--------6-----6------------4-----------------------1-------4--4\-----------|
D|-----6-----------6------2-----2------------2-------------4----4\-----------|
A|--4------------------0------------------2--------------2------2\-----------|
E|-------------------------------------0-------------------------------------|

e|---------------------------------0----------2--2---------------------------|
B|-----------5--------------------------------0--0---------------------------|
G|--------6-----6------------4----------------1--1-----------4----4--4\------|
D|-----6-----------6------2-----2----------2---------------4------4--4\------|
A|--4------------------0-----------------2---------------2--------2--2\------|
E|-------------------------------------0-------------------------------------|

Chorus C#5	 A5     A59    E5   E59       B5
e|---------------------------------------------------------------------------|
B|---------------------------------------------------------------------------|
G|--6--6--6--6-----------------------------4--4--4--4------------------------|
D|--6--6--6--6---7--7--9--9---2--2--4--4---4--4--4--4------------------------|
A|--4--4--4--4---7--7--7--7---2--2--2--2---2--2--2--2------------------------|
E|---------------5--5--5--5---0--0--0--0-------------------------------------|
[ Tab from: http://www.guitartabs.cc/tabs/o/our_lady_peace/not_enough_tab_ver_4.html ]
2nd Verse
e|----------------------------------0----------2-----------------------------|
B|--------5--4h5p4--------------------------------0---4------4---------------|
G|------------------6---------4------------------------------4-4-------------|
D|-----6-------------------2-----2-------------------------4-----4-----------|
A|--4-------------------0-------------------2------------2-------------------|
E|---------------------------------------0-----------------------------------|

e|----------------------------0---------2-2---2------------------------------|
B|--------5-----------------------------0-0---0---------4--------------------|
G|------6---6-----------4---------------1-1---1-------4-4-4------------------|
D|----6-------6------2-----2------------------------4---4-4------------------|
A|--4-------------0------------------2------------2-------2------------------|
E|--------------------------------0------------------------------------------|
Back to Chorus....


Bridge (dont fall asleep now)
e|--------------| x 26
B|--------------|
G|----6--6------|   This part sounds really heavy... perhaps switch to your
D|----6--6------|   neck pickup and apply a light palm mute.
A|----4--4------|
E|--------------|

Solo
e|---------------------------------------------------------------------------|
B|---------------------------------------------------------------------------|
G|-----------6~-6~-6~--8b9r8-------8b9r8-------------6---------8-------------|
D|----/6--9------------------9--7---------9--6----------9--9~-----9----------|
A|-----------------------------------------------/7--------------------------|
E|---------------------------------------------------------------------------|

e|---------------------------------------------------------------------------|
B|------------------------------------------------------------7~-7~-7~-7b9---|
G|-----------6~-6~-6~--8b9r8-------8b9r8-----------------6-------------------|
D|----/6--9------------------9--7---------9--6--6--9-9-9---9-----------------|
A|---------------------------------------------------------------------------|
E|---------------------------------------------------------------------------|

Another chorus followed by another spot of lead...

e|---------------------------------------------------------------------------|
B|---------------------------------------------------------------------------|
G|--8h9-8b9r8b9r8-8h9-8b9r8b9r8-8h9-9b11r9-8h9-8b9r8b9r8-8h9-----------------|
D|-----------------------------------------------------------/9--------------|
A|---------------------------------------------------------------------------|
E|---------------------------------------------------------------------------|

e|---------------------------------------------------------------------------|
B|---------------------------------------------------------------------------|
G|---9-8-9-8-9-8-9-8-9-8-9/11-11-11~-----------------------------------------|
D|---------------------------------------------------------------------------|
A|---------------------------------------------------------------------------|
E|---------------------------------------------------------------------------|

Some other noodling after this, which I can't quite pick out, maybe you can.

End on C#5.
e|---------| 
B|---------|
G|----6----|  
D|----6----|  
A|----4----|
E|---------|
===============================================================================

Comments